Nintendo/Koji Kondo - Zelda-Epona's song (Zelda64+Zelda: Majora's Mask)
Vorannon ([email protected])

Only two strings (G+D) are needed. 

G| 7-4-2--7-4-2--7-4-2-4-2-
D| ------------------------

G| -----64-7-7-6-4-2-
D| 3-2-3--------------

G| 7-4-2--7-4-2--7-4-2-4-2-
D| ------------------------

G| ------4-6-7--7-9-7
D| 3-2-3-------------


G| 4-4-4-4-4-5-4-4-2-2-5-
D| ----------------------3

G| 0-0-0-0-0-2-4-3
D| ---------------

G| 7-4-2--7-4-2--7-4-2-4-2-
D| ------------------------


Текст, аккорды и табулатура для песни "Zelda 64 Eponas Song", исполняет "Misc Computer Games".
Используемые в песне аккорды можно найти в разделе Как брать аккорды. Аккорды для шестиструнной гитары. Другие песни можно найти на нашем сайте, воспользовавшись алфавитным указателем вверху страницы.


 
Ошибка в тексте? Выделите ошибку и нажмите Ctrl+Enter