U.N. Squadron
Forest Fortress
 
Tabbed By: DJ Erik
E-Mail: [email protected]
www.angelfire.com/games4/nintygalaxy/main.html
 
Enjoy playing the Forest Fortress theme. Another spiffy bassline, have fun!

Tuning: EADG
 
G|--------------------------------|--------------------------------|
D|2---2---2---2---2---2---2---2---|2---2---2---2---2---2---2---2---|
A|--------------------------------|--------------------------------|
E|--------------------------------|--------------------------------|
 
 
G|--------------------------------|--------------------------------|
D|2---2---2---2---2---2---2---2---|2---2---2---2---2---2---2---2---|
A|--------------------------------|--------------------------------|
E|--------------------------------|--------------------------------|
 
 
G|--------------------------------|--------------------------------|
D|2---2---2---2---2---2---2---2---|2---2---2---2---2---2---2---2---|
A|--------------------------------|--------------------------------|
E|--------------------------------|--------------------------------|
 
 
G|--------------------------------|--------------------------------|
D|2---2---2---2---2---2---2---2---|2---2---2---2---2---2---0---2---|
A|--------------------------------|--------------------------------|
E|--------------------------------|--------------------------------|
 
 
G|--------------------------------|--------0-------4---------------|
D|--------------------0---0---2---|----2-------2-------2---0---2---|
A|--------------------------------|--------------------------------|
E|--------------------------------|--------------------------------|
 
 
G|--------------------------------|--------------------------------|
D|----------------0---------------|--------------------------------|
A|--------------------------------|--------2-----------------------|
E|--------------------------------|--------------------------------|
 
 
G|--------------------------------|--------------------------------|
D|2---2---2---2---2---2---2---0---|----------------------------0---|
A|--------------------------------|3---3---3---3---3---3---3-------|
E|--------------------------------|--------------------------------|
 
 
G|--------------------------------|--------0-------2-------4-------|
D|----0---0---0---0---0---0---2---|----2-------2-------2-------0---|
A|--------------------------------|--------------------------------|
E|--------------------------------|--------------------------------|
 
 
G|--------------------------------|--------------------------------|
D|2---2---2---2---2---2---2---0---|----------------------------0---|
A|--------------------------------|3---3---3---3---3---3---3-------|
E|--------------------------------|--------------------------------|
 
 

G|--------------------------------|--------0-------2-------4-------|
D|----0---0---0---0---0---0---2---|----2-------2-------2-----------|
A|--------------------------------|----------------------------3---|
E|--------------------------------|--------------------------------|
 

 

G|--------------------------------|--------------------------------|
D|----------------------------0---|----0---0---0---0---0---0---0---|
A|----3---3---3---3---3---3-------|--------------------------------|
E|--------------------------------|--------------------------------|
 
 
G|--------0---4-------------------|--------0-------2---------------|
D|2---2-----------2---0-------1---|2---2-------2-------2---0-------|
A|--------------------------------|----------------------------3---|
E|--------------------------------|--------------------------------|
 
 
G|--------------------------------|--------------------------------|
D|--------------------------------|0-------0---0---0---0---0---0---|
A|----3---3---3---3---3---3---3---|--------------------------------|
E|--------------------------------|--------------------------------|
 
 
G|--------------------------------|--------------------------------|
D|2-----------------------0-------|2---2---------------------------|
A|--------------------------------|------------------------2-------|
E|--------------------------------|--------------------------------|
 
Repeat forever.


Текст, аккорды и табулатура для песни "Un Squadron - Forest Fortress", исполняет "Misc Computer Games".
Используемые в песне аккорды можно найти в разделе Как брать аккорды. Аккорды для шестиструнной гитары. Другие песни можно найти на нашем сайте, воспользовавшись алфавитным указателем вверху страницы.


 
Ошибка в тексте? Выделите ошибку и нажмите Ctrl+Enter