this is how it really goes you guys, this is 100% correct, if you say otherwise
then go kill yourself.  i also have 2 different ways of doin the first parts, you
can start it off the lazy way, or you can jus go all out and play it for real,
your choice, but the real way is more correct eventhough they both sound good.

lazy person way (not 100%, but still sounds good)
                2x                   2x
G|----------------|   |----------------|
D|----------------|   |----------------|
A|--3-3-0-0-1-1---|   |----------------|
E|----------------|   |--3-3-0-0-1-1---|

Real way 100% correct, a lil harder
              2x                  2x
G|---7---4---5--|   |--------------|
D|--------------|   |---5---2---3--|
A|--5---2---3---|   |--------------|
E|--------------|   |--3---0---1---|

Then continue on with this

Revised tab by Blind
Original tab by Leigh

Текст, аккорды и табулатура для песни "Super Mario Brothers - Underground Theme", исполняет "Misc Computer Games".
Используемые в песне аккорды можно найти в разделе Как брать аккорды. Аккорды для шестиструнной гитары. Другие песни можно найти на нашем сайте, воспользовавшись алфавитным указателем вверху страницы.

Ошибка в тексте? Выделите ошибку и нажмите Ctrl+Enter