--------------------------------------------------------------------------------
                 Sonic The Hedgehog - Spring Yard Zone
--------------------------------------------------------------------------------

Game: Sonic The Hedgehog
Tunning: EADGBe
Tabbed by: Zeroisgreatman

(1)
e|----------------------------------------------|
B|----------------------------------------------|
G|----------------------------------------------|
D|-2-2-----2----------2-------2--4-4-----4---3~-|
A|-----3-0---3--0-2-3---0-2-3--------5-2---5----|
E|----------------------------------------------|

(2)
e|---------------------------------------------------------|
B|---------------------------------------------------------|
G|---------------------------------------------------------|
D|-2-2-----2----------2-------2--4-4-----4---3-3-5h-3-5h-7-|
A|-----3-0---3--0-2-3---0-2-3--------5-2---5---------------|
E|---------------------------------------------------------|

(3)
e|--------------------------------|
B|--------------------------------|
G|--------------------------------|
D|-3-3-2-0---0--------------------|
A|---------3---3-0--1-1-3-1-0-1-3-|
E|--------------------------------|

(4)
e|------------------------------|
B|------------------------------|
G|------------------------------|
D|-3-3-2-0---0--------5-7-7-5-3-|
A|---------3---3-0--3-----------|
E|------------------------------|

(5)
e|--------------------------------|
B|--------------------------------|
G|--------------------------------|
D|-3-3-2-0---0--------------------|
A|---------3---3-0--1-1-3-1-0-1-3-|
E|--------------------------------|

(6)
e|------------------------|
B|------------------------|
G|------------------------|
D|-7-5-3-2-3h-2-3h-2-3h-0-|
A|------------------------|
E|------------------------|

This is all melody, it's like playing a whole natural solo slowly.
It is a bit tricky to learn at first, that's why it's broken into smaller parts.
After 6 is played, start the song over again(since it is a loop).

================================================================================


Текст, аккорды и табулатура для песни "Sonic Adventure - Spring Yard Zone", исполняет "Misc Computer Games".
Используемые в песне аккорды можно найти в разделе Как брать аккорды. Аккорды для шестиструнной гитары. Другие песни можно найти на нашем сайте, воспользовавшись алфавитным указателем вверху страницы.


 
Ошибка в тексте? Выделите ошибку и нажмите Ctrl+Enter