--------------------------------------------------------------------------------
                  Sonic Adventure 2 - Green Forest Stage
--------------------------------------------------------------------------------

Game: Sonic Adventure 2/Sonic Adventure 2: Battle
Tunning: (Guitar) - EADGBe (Bass) - EADG
Tabbed by: Zeroisgreatman

Intro:(Play first 2 riffs 2x)
e|-------------------------------------|
B|-------------------------------------|
G|-4-x-x-x-x-7-x-x-x-x-9-x-x-x-x-------|
D|-4-x-x-x-x-7-x-x-x-x-9-x-x-x-x-7-5-7-|
A|-2-x-x-x-x-5-x-x-x-x-7-x-x-x-x-7-5-7-|
E|-------------------------------5-3-5-|

e|-----------------------------------------|
B|-----------------------------------------|
G|-4-x-x-x-x-7-x-x-x-x-9-x-x-x-x--14-12-14-|
D|-4-x-x-x-x-7-x-x-x-x-9-x-x-x-x--14-12-14-|
A|-2-x-x-x-x-5-x-x-x-x-7-x-x-x-x--12-10-12-|
E|-----------------------------------------|

Main Riff:
e|-------------------------------------------------------------------------|
B|-------------------------------------------------------------------------|
G|-7--x-x-x-x-7-x-x-x-x--5-x-x-x-x-5-x-x-x-x--4-x-x-x-x-4-x-x-x-x----------|
D|-7--x-x-x-x-7-x-x-x-x--5-x-x-x-x-5-x-x-x-x--4-x-x-x-x-4-x-x-x-x--5-5-7-7-|
A|-5--x-x-x-x-5-x-x-x-x--3-x-x-x-x-3-x-x-x-x--2-x-x-x-x-2-x-x-x-x--5-5-7-7-|
E|-----------------------------------------------------------------3-3-5-5-|

Bass Plays under it.
G|--------------------------------------------------------------------------|
D|--------------------------------------------------------------------------|
A|-5-5-5-/9-7-5----------3-3-3--/7-5-3--------2-2-2--/5-3-2-----------------|
E|------------------------------------------------------------------3-3-5-5-|

================================================================================


Текст, аккорды и табулатура для песни "Sonic Adventure 2 - Green Forest Stage", исполняет "Misc Computer Games".
Используемые в песне аккорды можно найти в разделе Как брать аккорды. Аккорды для шестиструнной гитары. Другие песни можно найти на нашем сайте, воспользовавшись алфавитным указателем вверху страницы.


 
Ошибка в тексте? Выделите ошибку и нажмите Ctrl+Enter