-------------------------------------------------------------------------------
			     Escape from the city - Sonic adventur 2
-------------------------------------------------------------------------------

By:Zero
Standard tunning(guitar):EADGBe
Standard tunning(bass):EADG
Guitar plays with distortion
bass has to be played by slapping and picking

this is the song from sonic adventure 2, i think this is the song for sonics first stage.

Bass: Intro
G|--------4------------------------------------------------------------------|
D|-------------6-------------------------------------------------------------|
A|-2-2-2---------------------------------------------------------------------|
E|----------4-----2----------------------------------------------------------|

Guitar:intro(after the bass plays the first time)
e|---------------------------------------------------------------------------|
B|---------------------------------------------------------------------------|
G|-4-4-4-4-------------------------------------------------------------------|
D|-4-4-4-4--6-6--4-----------------------------------------------------------|
A|-2-2-2-2--6-6--4-----------------------------------------------------------|
E|----------4-4--2-----------------------------------------------------------|


Bass: Verse
G|---4---4---4---4-----------------------------------------------------------|
D|---------------------6---6---6---6----2---2---2---2----4---4---4---4------|
A|-2---2---2---2-------------------------------------------------------------|
E|-------------------4---4---4---4----0---0---0---0----2---2---2---2---------|

Guitar:verse
e|---------------------------------------------------------------------------|
B|---------------------------------------------------------------------------|
G|-4-4-4-4-4-4-4-4-----------------------------------------------------------|
D|-4-x-4-x-4-x-4-x--6-6-6-6-6-6-6-6--2-2-2-2-2-2-2-2--4-4-4-4-4-4-4-4--------|
A|-2-2-2-2-2-2-2-2--6-x-6-x-6-x-6-x--2-x-2-x-2-x-2-x--4-x-4-x-4-x-4-x--------|
E|------------------4-4-4-4-4-4-4-4--0-0-0-0-0-0-0-0--2-2-2-2-2-2-2-2--------|

Bass:prechorus
G|------------------------4---------------------------------------------------|
D|-------2-------4----------------6--------------------------------------------|
A|------------------2-2-2------------------------------------------------------|
E|-0-0-0---2-2-2------------4-4-4----------------------------------------------|

Guitar:prechorus
e|---------------------------------------------------------------------------|
B|---------------------------------------------------------------------------|
G|-------------------4-4-4-4-------------------------------------------------|
D|-2-2-2-2--4-4-4-4--4-4-4-4--6-6-6-6----------------------------------------|
A|-2-2-2-2--4-4-4-4--2-2-2-2--6-6-6-6----------------------------------------|
E|-0-0-0-0--2-2-2-2-----------4-4-4-4----------------------------------------|

Bass:Chorus
G|---------------------------------------------------------------------------|
D|---------------------------------------------------------------------------|
A|---------6-4-2----------6-4-2-----------6-4-2----------6-4-2---------------|
E|-0-0-0-0--------3-3-3-3--------4-4-4-4---------5-5-5-5---------------------|

Guitar:chorus
e|---------------------------------------------------------------------------|
B|---------------------------------------------------------------------------|
G|---------------------------------------------------------------------------|
D|-2-2-2-2-2-2--5-5-5-5-5-5-5--6-6-6-6-6-6--7-7-7-7-7-7----------------------|
A|-2-2-2-2-2-2--5-5-5-5-5-5-5--6-6-6-6-6-6--7-7-7-7-7-7----------------------|
E|-0-0-0-0-0-0--3-3-3-3-3-3-3--4-4-4-4-4-4--5-5-5-5-5-5----------------------|

Bass:ill make it through, prove it to you, follow me
G|---------------------------------------------------------------------------|
D|---------------------------------------------------------------------------|
A|---------------------5---7-------------------------------------------------|
E|-0-0-0-0--3-3-3-3--3---5---------------------------------------------------|

Guitar:ill make it through, prove it to you, follow me
e|---------------------------------------------------------------------------|
B|---------------------------------------------------------------------------|
G|---------------------------------------------------------------------------|
D|-2-2-2-2--5-5-5-5--5-5-7-7-------------------------------------------------|
A|-2-2-2-2--5-5-5-5--5-5-7-7-------------------------------------------------|
E|-0-0-0-0--3-3-3-3--3-3-5-5-------------------------------------------------|

Lyrics

|intro|

|verse 1|
rolling around at the speed of sound,
got places to go got to follow my rainbow.
cant stick aroung got to keep moving on
guess what lies a head, only one way to find out.

|pre chorus|
must keep on moving a head,
no time for gussing follow my plan instead
trust me in what you cant see
take my lead ill set you free

|chorus|
follow me, set me free
trust me and we will escape form the city
ill make it trough 
folow me, set me free
trust me and we will escape from the city
ill make it through prove it to you, follow me

|intro|

|Verse 2|
danger is lurking around every turn
trust your feelings got to live and learn
i know with some luck ill make it through
got no further options only one thing to do.

|pre chorus|
i dont care what lies a head
no time for guessing follow my plan instead
trust me in what you cant see 
take my lead, ill set you free

|chorus|
follow me, set me free
trust me and we will escape from the city
ill make it through, follow
fallow me, set me free
trust me and we will escape from the city
ill make it through, prove it to you
follow me.
===============================================================================



Текст, аккорды и табулатура для песни "Sonic Adventure 2 - Escape From The City", исполняет "Misc Computer Games".
Используемые в песне аккорды можно найти в разделе Как брать аккорды. Аккорды для шестиструнной гитары. Другие песни можно найти на нашем сайте, воспользовавшись алфавитным указателем вверху страницы.


 
Ошибка в тексте? Выделите ошибку и нажмите Ctrl+Enter