e|-----------------------------7---8---7--------------------------------|
B|----------------8---10---10-------------10---8---10-------------------|
G|---7---9---10-----------------------------------------10---9---7---5--|
D|----------------------------------------------------------------------|
A|----------------------------------------------------------------------|
E|----------------------------------------------------------------------|

e|-------------------------7---8---7---------------------|
B|-----------------8---10--------------10---10---9---10--|
G|---7---9---10------------------------------------------|
D|-------------------------------------------------------|
A|-------------------------------------------------------|
E|-------------------------------------------------------|

e|-------------------------7---8---7---------------------------------|
B|-----------------8---10--------------10---8---10-------------------|
G|---7---9---10--------------------------------------10---9---7---5--|
D|-------------------------------------------------------------------|
A|-------------------------------------------------------------------|
E|-------------------------------------------------------------------|

e|----------------------------------------------------------------------------|
B|-------------------------------------10-------------------------------------|
G|---10---10---12---10---9------------------9---12---10---9---9---10---7---7--|
D|---------------------------12---10------------------------------------------|
A|----------------------------------------------------------------------------|
E|----------------------------------------------------------------------------|

e|---10------10---8---7----------------------------------7---8--|
B|-------10--------------10---8---10---6---8---10---10----------|
G|--------------------------------------------------------------|
D|--------------------------------------------------------------|
A|--------------------------------------------------------------|
E|--------------------------------------------------------------|

e|---10------10---8---7---------------------------------------|
B|-------10--------------10---8-------------------------------|
G|--------------------------------10---12---9-----------------|
D|----------------------------------------------11---12---12--|
A|------------------------------------------------------------|
E|------------------------------------------------------------|

e|---10------10---8---7----------------------------------7---8---8--|
B|-------10--------------10---8---10---6---8---10---10--------------|
G|------------------------------------------------------------------|
D|------------------------------------------------------------------|
A|------------------------------------------------------------------|
E|------------------------------------------------------------------|

e|---10------10---8---7---------------------------------------|
B|-------10--------------10---8-------------------------------|
G|--------------------------------10---12---9-----------------|
D|----------------------------------------------12---11---12--|
A|------------------------------------------------------------|
E|------------------------------------------------------------|

If you have problems with the rithm just hear the song twice and
you'll get it, it's pretty easy


Текст, аккорды и табулатура для песни "Final Fantasy - The Place Ill Return Someday", исполняет "Misc Computer Games".
Используемые в песне аккорды можно найти в разделе Как брать аккорды. Аккорды для шестиструнной гитары. Другие песни можно найти на нашем сайте, воспользовавшись алфавитным указателем вверху страницы.


 
Ошибка в тексте? Выделите ошибку и нажмите Ctrl+Enter