standard tuning. EADgbe

e|------------------------------------
b|0-0-2-4-0------2-0-0--0-0-2-4-0-4-7~
g|----------0-1-0---------------------
D|------------------------------------
A|------------------------------------
E|------------------------------------

e|---------------------------------------
b|7-9-7-4--4-2-0-2-4-2-0-0--0-0-2-4-2--0-
g|------------------------------------0--
D|---------------------------------------
A|---------------------------------------
E|---------------------------------------

if you have trouble with this, just go turn on FF8 and go to fisherman's
horizon. just sit there and listen and i promise you'll get this. any questions
or comments, send them my way, [email protected]
i've got plenty of tabs for better than ezra, elton john, and the tea party
if anyone's interested.


Текст, аккорды и табулатура для песни "Final Fantasy 8 - Fishermans Horizon Theme", исполняет "Misc Computer Games".
Используемые в песне аккорды можно найти в разделе Как брать аккорды. Аккорды для шестиструнной гитары. Другие песни можно найти на нашем сайте, воспользовавшись алфавитным указателем вверху страницы.


 
Ошибка в тексте? Выделите ошибку и нажмите Ctrl+Enter