Hey this is my first Tab so if its wroung dont yell at me

Heres the Tab it sounds pretty close to whats in the game
tell me what you think

pm= palm mute
r= release palm mute

|----------------------------------9-9-9------------9-9----
|------------------------------------------------10---------
|------------------------------------------7-9-9------------
|----------------------------------------9------------------
|-----------------------------------------------------------
|-0-pm-0-0-r-0-pm-0-0-r-0-pm-0-0-r--------------------------

|------------------------------------------------------------
|-7-6-5-7----------------------------------------------------
|---------------------7--------------------------------------
|---------7---7-9-8-9---9-0-7--------------------------------
|------------------------------------------------------------
|-----------7-----------------pm-0-0-r-0---------------------
                                         repeat from the begging

 I think thats its Enjoy


Текст, аккорды и табулатура для песни "Final Fantasy 7 - Cosmo Canyon Theme", исполняет "Misc Computer Games".
Используемые в песне аккорды можно найти в разделе Как брать аккорды. Аккорды для шестиструнной гитары. Другие песни можно найти на нашем сайте, воспользовавшись алфавитным указателем вверху страницы.


 
Ошибка в тексте? Выделите ошибку и нажмите Ctrl+Enter