************************
***What Child is This***
********by:Recker*******
************************


Played in ѕ time


E----|--------|-0--2--0-|--------|---------|--------|---------|--------|
B----|-1----3-|-1--3----|-3----0-|-------0-|-1------|---------|-0------|
G—-2-|-2------|---------|-4------|-0--2----|-2----2-|-2--0--2-|-0----0-|
D----|--------|---------|--------|-2-------|--------|-3-------|--------|
A----|--------|---------|--------|---------|--------|---------|--------|
E----|--------|---------|--------|---------|--------|---------|--------|




E---------|--------|-0--2--0-|--------|---------|---------|---------|-----|-----|
B---------|-1----3-|-1--3--1-|-3----0-|-------0-|-1--0----|---------|-----|-----|
G-------2-|-2------|---------|-0------|-0--2----|-2-----2-|-1-----0-|--2--|--2--|
D—-2------|--------|---------|--------|-2-------|---------|-2--4----|--2--|--2--|
A---------|--------|---------|--------|---------|---------|---------|-----|-----|
E---------|--------|---------|--------|---------|---------|---------|-----|-----|




E—-3--|-3--2--0-|--------|---------|--------|---------|--------|-----|
B—-5--|-5--2--1-|-3----0-|-------0-|-1------|---------|-0------|-----|
G-----|---------|-4----0-|-0--2----|-2----2-|-2--0--2-|-0----0-|-----|
D-----|---------|--------|-2-------|--------|-3-------|--------|--2--|
A-----|---------|--------|---------|--------|---------|--------|-----|
E-----|---------|--------|---------|--------|---------|--------|-----|




E—-3--|-3--2--0-|--------|---------|---------|---------|-----|-----|
B—-5--|-5--3--1-|-3----0-|-------0-|-1--0----|---------|-----|-----|
G-----|---------|-4----0-|-0--2----|-2-----2-|-1-----1-|--2--|--2--|
D-----|---------|--------|-2-------|---------|-2--4----|--2--|-----|
A-----|---------|--------|---------|---------|---------|-----|-----|
E-----|---------|--------|---------|---------|---------|-----|-----|


Текст, аккорды и табулатура для песни "What Child Is This", исполняет "Misc Christmas".
Используемые в песне аккорды можно найти в разделе Как брать аккорды. Аккорды для шестиструнной гитары. Другие песни можно найти на нашем сайте, воспользовавшись алфавитным указателем вверху страницы.


 
Ошибка в тексте? Выделите ошибку и нажмите Ctrl+Enter