This is a simple way to play the Christmas classic,
Rudlph the Red Nosed Reindeer.  ( I left out the intro.)


E-----0-2-0----5-2-0--------------0-2-0-2-0-5-4------------------
B-------------2--------------------------------------------------
G----------------------------------------------------------------
D----------------------------------------------------------------
A----------------------------------------------------------------
E----------------------------------------------------------------

E-----------------4-2-0--------------0-2-0-2-0--2----------------
B-----3-5-3-0-----------------------------------------2----------
G----------------------------------------------------------------
D----------------------------------------------------------------
A----------------------------------------------------------------
E----------------------------------------------------------------

E-----0-2-0----5-2-0--------------0-2-0-2-0-5-4------------------
B-------------2--------------------------------------------------
G----------------------------------------------------------------
D----------------------------------------------------------------
A----------------------------------------------------------------
E----------------------------------------------------------------

E-----------------4-2-0--------------0-2-0-2-0-7-5---------------
B-----3-5-3-0----------------------------------------------------
G----------------------------------------------------------------
D----------------------------------------------------------------
A----------------------------------------------------------------
E----------------------------------------------------------------

E------2-2-5-2-0---0---------------------------------------------
B-------------------2----------3-7-5-3-2-------------------------
G----------------------------------------------------------------
D----------------------------------------------------------------
A----------------------------------------------------------------
E----------------------------------------------------------------

E----------------------------------------------------------------
B-------0-2-5-7-9-9-9-----10-10-9-7-5-3-2------------------------
G----------------------------------------------------------------
D----------------------------------------------------------------
A----------------------------------------------------------------
E----------------------------------------------------------------

E-----0-2-0----5-2-0--------------0-2-0-2-0-5-4------------------
B-------------2--------------------------------------------------
G----------------------------------------------------------------
D----------------------------------------------------------------
A----------------------------------------------------------------
E----------------------------------------------------------------

E-----------------4-2-0--------------0-2-0-2-0-7-5---------------
B-----3-5-3-0----------------------------------------------------
G----------------------------------------------------------------
D----------------------------------------------------------------
A----------------------------------------------------------------
E----------------------------------------------------------------

Tht's it, easy song to play.

Merry Christmas!


Текст, аккорды и табулатура для песни "Rudolph The Red Nosed Reindeer", исполняет "Misc Christmas".
Используемые в песне аккорды можно найти в разделе Как брать аккорды. Аккорды для шестиструнной гитары. Другие песни можно найти на нашем сайте, воспользовавшись алфавитным указателем вверху страницы.


 
Ошибка в тексте? Выделите ошибку и нажмите Ctrl+Enter