Song: Oh When The Saints
Tabbed By: Cybershark2600

Standard Four String Tuning (G, D, A, E)
The other tab was horrible so I tabbed the real, better sounding version.  Play the song over and over for the correct timing.

G|-----5-6-8----5-6-8----5-6-8--5---5--
D|--5--------5--------5-----------5---7
A|-------------------------------------
E|-------------------------------------

G|--5--------5-8-8-8-5---5-6-8-5---3---
D|----7-5--5---------------------5---5-
A|-------------------------------------
E|-------------------------------------

Oh when the saints
Oh when the saints
Oh when the saints come marching in
Oh how I'd love, to be,in the number
When the saints come marching in


Текст, аккорды и табулатура для песни "Oh When The Saints Come Marching In", исполняет "Misc Christmas".
Используемые в песне аккорды можно найти в разделе Как брать аккорды. Аккорды для шестиструнной гитары. Другие песни можно найти на нашем сайте, воспользовавшись алфавитным указателем вверху страницы.


 
Ошибка в тексте? Выделите ошибку и нажмите Ctrl+Enter