Little Drummer Boy
Standard Tuning: EADG
KEY: VERY IMPORTANT
REGULAR

W = Whole note
H = Half note
Q = Quarter note
E = Eighth note

DOTTED
W. = Whole note half step longer (very rare)
H. = Half note half step longer
Q. = Quarter note half step longer
E. = Eighth note half step longer

COMBINATION OF ANY TWO MEANS YOU HOLD THE NOTE FOR LONGER SUCH AS H+W or H.+H.

2 measures drum solo then.. 

  H.  Q   H   Q  Q    E E  Q  H+W     Q  Q  Q  Q 
|-----0-|-2---2--2--|-3-2--3---2---|--R--------0--|
|-3-----|-----------|--------------|--R--3--3-----|
|-------|-----------|--------------|--R-----------|
|-------|-----------|--------------|--R-----------|
  
   Q  Q  Q  Q    E E  Q   H+W    Q  Q  Q  Q     Q  Q  Q  Q
|--2--2--2--2--|-3-2--3---2---|--R--0--2--3--|--5--5--5--7--|
|--------------|--------------|--R-----------|--------------|
|--------------|--------------|--R-----------|--------------|
|--------------|--------------|--R-----------|--------------|

  E E  Q  H+W     Q  Q  Q  Q     Q  Q  Q  Q    E E  Q   H
|-5-3--2---0---|--R--0--2--3--|--5--5--5--7--|-9-7--5---3---|
|--------------|--R-----------|--------------|--------------|
|--------------|--R-----------|--------------|--------------|
|--------------|--R-----------|--------------|--------------|
  
  E E  Q   H     E E  Q  H+W      H.  Q     Q  Q  Q  Q
|-7-5--3---2---|-5-3--2---0---|-------0--|--2--2--2--2--|
|--------------|--------------|---3------|--------------|
|--------------|--------------|----------|--------------|
|--------------|--------------|----------|--------------|

  E E  Q  H+W    E E  Q  H+W 
|-3-2--3---2---|-0----0-------| 2x 
|--------------|---3------3---|   
|--------------|--------------|
|--------------|--------------|

then to this....

  E E  Q  H+W    E E  Q    W    H       H.  Q     Q  Q  Q  Q
|--------------|--------------------|-------0--|--2--2--2--2--|
|-2----2-------|--------------------|---3------|--------------|
|---3------3---|-2-0--2----0----3---|----------|--------------|
|--------------|--------------------|----------|--------------|

   E E  Q  H+W    E E  H.+H. Q. Q.   E E  Q  H+W
|--3-2--3---2---|-0-----0----------|--------------|
|---------------|---3--------1--3--|--------------|
|---------------|------------------|-1----1-------|
|---------------|------------------|---3------3---|


Текст, аккорды и табулатура для песни "Little Drummer Boy", исполняет "Misc Christmas".
Используемые в песне аккорды можно найти в разделе Как брать аккорды. Аккорды для шестиструнной гитары. Другие песни можно найти на нашем сайте, воспользовавшись алфавитным указателем вверху страницы.


 
Ошибка в тексте? Выделите ошибку и нажмите Ctrl+Enter