E||---------------------||------------------------|----------------------|
B||-----------0----1----||---3--------------------|------------0----1----|
G||------0--------------||*---------------0-------|-------0--------------|
D||---------------------||*-------0----------0----|-------0---------0----|
A||---------------------||------------------------|----------------------|
E||---------------------||---3---------3----------|--3---------3---------|


                                                                      
-----------------------|----------------------|----------------------|
--3--------------------|------------0----1----|--3---------0---------|
---------------0-------|-------0--------------|----------------------|
-------0----------0----|-------0---------0----|-------0---------0----|
-----------------------|----------------------|----------------------|
--3---------3----------|--3---------3---------|--3---------3---------|


                         D9                                             
----------------------|-----------------------|------------------------|
------------0---------|-----------------------|----------0-------------|
--0-------------------|--2------------2-------|--2-------------2-------|
-------0---------0----|-------0----------0----|-------0-----------0----|
----------------------|-----------------------|------------------------|
--3---------3---------|--2---------2----------|--2----------2----------|


                          G7sus2                 C                     
-----------------------|----------------------|-----------------------|
-----------------------|--0---------3---------|--3----1---------------|
--0------------0-------|----------------------|---------------0-------|
-------0----------0----|-------3---------3----|-------2----------2----|
-----------------------|----------------------|-----------------------|
--3---------3----------|--3---------3---------|--3---------3----------|


  Cm                                                                 
----------------------|----------------------|----------------------|
-------1----0----1----|--3---------0---------|----------------------|
----------------------|----------------------|--0---------2---------|
-------1---------1----|-------0---------0----|-------0---------0----|
----------------------|----------------------|----------------------|
--3---------3---------|--3---------3---------|--3---------2---------|


                                                                       
-----------------------|----------------------|-----------------------|
-----------------------|------------0----1----|--3--------------------|
--0------------0-------|-------0--------------|---------------0-------|
-------0----------0----|----------------------|-------0----------0----|
-----------------------|----------------------|-----------------------|
--3---------3----------|--3-------------------|--3---------3----------|


                                                                      
----------------------|-----------------------|----------------------|
------------0----1----|--3--------------------|------------0----1----|
-------0--------------|---------------0-------|-------0--------------|
-------0---------0----|-------0----------0----|-------0---------0----|
----------------------|-----------------------|----------------------|
--3---------3---------|--3---------3----------|--3---------3---------|


                                                D9                    
----------------------|----------------------|-----------------------|
--3---------0---------|------------0---------|-----------------------|
----------------------|--0-------------------|--2------------2-------|
-------0---------0----|-------0---------0----|-------0----------0----|
----------------------|----------------------|-----------------------|
--3---------3---------|--3---------3---------|--2---------2----------|


                                                   G7sus2               
------------------------|-----------------------|----------------------|
----------0-------------|-----------------------|--0---------3---------|
--2-------------2-------|--0------------0-------|----------------------|
-------0-----------0----|-------0----------0----|-------3---------3----|
------------------------|-----------------------|----------------------|
--2----------2----------|--3---------3----------|--3---------3---------|


  C                       Cm                     G                    
-----------------------|----------------------|----------------------|
--3----1---------------|-------1----0----1----|--3---------0---------|
---------------0-------|----------------------|----------------------|
-------2----------2----|-------1---------1----|-------0---------0----|
-----------------------|----------------------|----------------------|
--3---------3----------|--3---------3---------|--3---------3---------|


            D            G                                            
----------------------|-----------------------|-------3----3----3----|
----------------------|-----------------------|----------------------|
--0---------2---------|--0------------0-------|----------------------|
-------0---------0----|-------0----------0----|----------------------|
----------------------|-----------------------|----------------------|
--3---------2---------|--3---------3----------|--3-------------------|


                                                                       
--3--------------------|-------3----3----3----|--3--------------------|
--0--------------------|----------------------|--0--------------------|
---------------0-------|----------------------|---------------0-------|
-------0----------0----|----------------------|-------0----------0----|
-----------------------|----------------------|-----------------------|
--3---------3----------|--3-------------------|--3---------3----------|


                                                                     
-------3----3----3----|--3---------3---------|--3---------3---------|
----------------------|--0---------0---------|--0---------0---------|
----------------------|----------------------|----------------------|
----------------------|-------0---------0----|-------0---------0----|
----------------------|------------2---------|--0-------------------|
--3-------------------|--3-------------------|------------3---------|


  D7                                               G                     
--2--------------------|--2-------2-----2-------|--3------------3-------|
--1--------------------|--1-------1-----1-------|--0------------0-------|
---------------2-------|------------------------|-----------------------|
-------0----------0----|-------0-----------0----|-------0----------0----|
-----------------------|------------------------|-----------------------|
--2---------2----------|--2----------2----------|--3---------3----------|


  G7                      C                       Cm                    
--1------------1-------|--0------------0-------|-----------------------|
--0------------0-------|--1------------1-------|--4------------4-------|
-----------------------|-----------------------|--5------------5-------|
-------0----------0----|-------2----------2----|-------5----------5----|
-----------------------|--3--------------------|--3--------------------|
--3---------3----------|------------3----------|------------3----------|


  G                      D                      G                     
----------------------|----------------------|-----------------------|
--3---------0---------|----------------------|-----------------------|
--0---------0---------|--2---------2---------|--0------------0-------|
-------0---------0----|-------0---------0----|-------0----------0----|
----------------------|----------------------|-----------------------|
--3---------3---------|--2---------2---------|--3---------3----------|


                                              
-----------------------||--3----------------||
------------0----1-----||--0----------------||
-------0--------------*||--0----------------||
----------------------*||--0----------------||
-----------------------||-------------------||
--3--------------------||--3----------------||


Текст, аккорды и табулатура для песни "When The Saints Go Marching In", исполняет "Misc".
Используемые в песне аккорды можно найти в разделе Как брать аккорды. Аккорды для шестиструнной гитары. Другие песни можно найти на нашем сайте, воспользовавшись алфавитным указателем вверху страницы.


Слушать онлайн When The Saints Go Marching In


Teresa BrewerWhen The Saints Go Marching In на Яндекс.Музыке


 
Ошибка в тексте? Выделите ошибку и нажмите Ctrl+Enter