Song title: Stuck in Democracy
Artist: The Rip Offs
Album: Ripped Off
Tabbed By: Wrightie - [email protected]
Written By: Stephen Blythe

 intro/verse
e|-------------------------------------|
a|-------------------------------------|
d|-99-999-999-999-9--------------------|
g|-99-999-999-999-9-55-555-5-77-777-7--|
b|-77-777-777-777-7-55-555-5-77-777-7--|
e|------------------33-333-3-55-555-5--| x4

 verse part 2
e|--------------------------------------------------------|
a|--------------------------------------------------------|
d|-11-11-11-11-11-11-11-11-11-11-11-11--------------------|
g|-11-11-11-11-11-11-11-11-11-11-11-11-77-777-7-99999999--|
b|-9--9--9--9--9--9--9--9--9--9--9--9--77-777-7-99999999--|
e|-------------------------------------55-555-5-77777777--| x1

 chorus
e|-------------------------------------|
a|-------------------------------------|
d|-9999999999999999--------------------|
g|-9999999999999999-55555555-77777777--|
b|-7777777777777777-55555555-77777777--|
e|------------------33333333-55555555--| x2

 end on
e|----|
a|----|
d|-9--|
g|-9--|
b|-7--|
e|----|

 intro x4
 verse x2
 verse part 2 x1
 chorus x2
 verse x2
 verse part 2 x1
 chorus x2
 verse x2
 verse part 2 x1
 chorus x2
 end on

Great song written by good good personal best friend of mine. P.S I love the
drummer you should call me sometime, you make me do a sex/wee! j
Hey dont be brutal this is my first tab. Any suggestions e-mail me at 
[email protected] (I dont need any from you Haigie!)


Текст, аккорды и табулатура для песни "Stuck In Democracy", исполняет "Misc".
Используемые в песне аккорды можно найти в разделе Как брать аккорды. Аккорды для шестиструнной гитары. Другие песни можно найти на нашем сайте, воспользовавшись алфавитным указателем вверху страницы.


 
Ошибка в тексте? Выделите ошибку и нажмите Ctrl+Enter