This song is in 3/4 time and it's finger picking. Send questions or comments to
Jared at [email protected]

[email protected]2---12---12-|
B---0---0---0---0---0---0---0---0---0---0---0---0---0---0---0---0----0----0--|
G---0---0---0---0---0---0---0---0---0---0---0---0---0---0---0---0----0----0--|
D----------------------------------------------------------------------------|
A----------------------------------------------------------------------------|
E---0-----------0-----------0-----------0-----------0-----------0------------|

e---12---10---8---8---7---5---5---7---8---7---8---7---11---8---7---7---5---3-|
B---0----0----0---5---5---5---5---5---5---7---7---8---7----7---7---0---0---0-|
G---0----0----0---5---5---5---5---5---5---8---8---7---8----8---8---0---0---0-|
D----------------------------------------------------------------------------|
A----------------------------------------------------------------------------|
E---0-------------0-----------0-----------0-----------0------------0---------|

                                                   Em
e---3---2---0---2---2---2---2---3---2---0---0---0---0-|
B---0---0---0---0---0---0---0---0---0---0---0---0---0-|
G---0---0---0---2---2---2---2---2---2---0---0---0---0-|
D---------------------------------------2-----------2-|
A---------------2-----------2---------------2-------2-|
E---0-------------------------------------------3---0-|


Текст, аккорды и табулатура для песни "Ramanza", исполняет "Misc".
Используемые в песне аккорды можно найти в разделе Как брать аккорды. Аккорды для шестиструнной гитары. Другие песни можно найти на нашем сайте, воспользовавшись алфавитным указателем вверху страницы.


 
Ошибка в тексте? Выделите ошибку и нажмите Ctrl+Enter