Packington's Pound, Anon. (16th Century)

A minor


e|-----------|-----------|-----------|--------------|
B|-----0--1--|--0--------|-----0--1--|--0-----1--3--|
G|--2--------|--1--------|--2--------|--1-----------|
D|--2--------|-----2-----|--2--------|-----2--------|
A|--0--------|-----------|--0--------|--------------|
E|-----------|--------0--|-----------|--------------|

e|--0--1--0--|-----------|-----------|-----|
B|-----------|--3--0-----|-----1--0--|-----|
G|-----------|--------0--|--2-----1--|--2--|
D|-----------|-----------|--2--------|--2--|
A|--3--------|-----------|--0--------|--0--|
E|-----------|--3--------|--------0--|-----|

e|-----------------|-----------|-----------------|
B|-----------0--1--|--0--------|-----0--1--3--1--|
G|--2--1--2--------|--1--------|--2--------------|
D|-----------------|-----2-----|-----------------|
A|--0--------------|-----------|--0--------------|
E|-----------------|--------0--|-----------------|

e|--------------|--0--1--0-----1-----|-----------|
B|--0-----1--3--|-----------3-----1--|--3--0-----|
G|--1-----------|--------------------|--------0--|
D|-----2--------|--------------------|-----------|
A|--------------|--3-----------------|--3--------|
E|--0-----------|--------------------|-----------|

e|--------------|-----|--0--3--2--|--0-----|
B|-----0--1--0--|-----|--0-----0--|--0--0--|
G|--2--------1--|--2--|-----------|--------|
D|--2-----------|--2--|-----------|--------|
A|--0-----------|--0--|--------2--|--------|
E|-----------0--|-----|--0--------|--0-----|

e|--0--3--2--|--0-----|--0--3--2--|--0--3--2--|
B|--0-----0--|--0--0--|--0-----0--|--0-----0--|
G|-----------|--------|-----------|-----------|
D|-----------|--------|-----------|-----------|
A|--------2--|--------|-----------|-----------|
E|--0--------|--0-----|--0--------|--0--------|

e|--0--3--2--|--0-----|--0--1--0--|-----------|
B|--0-----0--|--0--0--|-----------|--3--0-----|
G|-----------|--------|-----------|--------0--|
D|-----------|--------|-----------|-----------|
A|--------2--|--------|--3--------|--3--------|
E|--0--------|--0-----|-----------|-----------|

e|-----------|-----------|--0--1--0--|-----------|
B|--1--3--1--|--0--------|-----------|--3--0-----|
G|-----------|--1--------|-----------|--------0--|
D|-----------|-----2-----|-----------|-----------|
A|--0--------|-----------|--3--------|-----------|
E|-----------|--------0--|-----------|--3--------|

e|-----------|-----|--0-----0--1--0--|-----------|
B|-----1--0--|-----|-----3-----------|--3--0-----|
G|--2-----1--|--2--|-----------------|--------0--|
D|--2--------|--2--|-----------------|-----------|
A|--0--------|--0--|--3--------------|-----------|
E|--------0--|-----|-----------------|--3--------|

e|-----------------|-----------|--0-----0--1--0--|
B|--1--0--1-----1--|--0--------|-----3-----------|
G|-----------------|--1--------|-----------------|
D|-----------0-----|-----2-----|-----------------|
A|--0--------------|-----------|--3--------------|
E|-----------------|--------0--|-----------------|

e|-----------|--------------|-----||
B|--3--0-----|-----0--1--0--|-----||
G|--------0--|--2--------1--|--2--||
D|-----------|--2-----------|-----||
A|--3--------|--0-----------|--0--||
E|-----------|-----------0--|-----||


Текст, аккорды и табулатура для песни "Packingtons Pound", исполняет "Misc".
Используемые в песне аккорды можно найти в разделе Как брать аккорды. Аккорды для шестиструнной гитары. Другие песни можно найти на нашем сайте, воспользовавшись алфавитным указателем вверху страницы.


 
Ошибка в тексте? Выделите ошибку и нажмите Ctrl+Enter