#----------------------------------PLEASE NOTE--------------------------------#
#This file is the author's own work and represents their interpretation of the#
#song. You may only use this file for private study, scholarship, or research.#
#-----------------------------------------------------------------------------#

Date: Wed, 08 Apr 1998 21:28:40 -0700
From: Adam Bishop 
Subject: m/misc/oh_canada.tab

Oh Canada

Tabbed by Adam Bishop

Music by Calixa Lavallйe
French lyrics by Sir Adolphe-Basile Routhier
The current English lyrics were decided on by some government committee
in the 1970's.  

E|-----------------------------------------
B|-----------------------------------------
G|--0--0-0-----0---0----0---0---0-----0----
D|--2--5-5-0---0---2----3---5---7-----0----
A|---------3-------------------------------
E|-----------------------------------------
    Oh Canada, our home and na- tive  land
    Oh Canada, terre    de  nos aп -  eux

E|--------------------------------------------------
B|--------------------------------------------------
G|--0----0-----0---0------0--0---0----0-----0--0----
D|--2----4-----4---5------7--9---9----7-----7--5----
A|--------------------------------------------------
E|--------------------------------------------------
    True patr  iot love,  in all thy  Son's command
    Ton  front est ceint, de fleurons glo - ri-eux

E|--------------------------------------------------------------------------
B|--------------------------------------------------------------------------
G|--0--0---0----0----0-------0-0-0---0----0-----0-0-0----0-----0------0---0-
D|--0--2---3----2----0-------2-3-5---3----2-----3-5-7----5-----3------2---0-
A|--------------------------------------------------------------------------
E|--------------------------------------------------------------------------
    Wi-th  glow-ing  hearts, we  see thee rise, the true north strong
and free
    Carton bras sait port -  er  l'ep-й - e,    il  sait por - ter   
la  croix 

E|------------------------------------------------------------------------
B|------------------------------------------------------------------------
G|--0---0--0-----0---0-----0-0-0-0-0--0---0-----0--0--0----0---0----0-0-0-
D|--0---2--3-----2---0-----2-3-5-3-2--2---0-----5--5--3----2---5----3-2-0-
A|------------------------------------------------------------------------
E|------------------------------------------------------------------------
    From   far   and wide, Oh Canada, we  stand on guard   for thee
    Ton histoire est une   йpopйe,    des plus  brilliants exploits

E|------------------------------------------
B|------------------------------------------
G|--0---0----0---------0--0----0---0---0----
D|--2---5----5---0-----3--3----7---7---0----
A|---------------3--------------------------
E|------------------------------------------
    God keep our land, glori - ous and free
    Et  ta   va -leur, de foi  trem -  pйe

E|--------------------------------------------
B|--------------------------------------------
G|--0--0-0-0---0---0-----0---0-----0---0------
D|--5--6-6-7---5---4-----2---0-----2---4------
A|--------------------------------------------
E|--------------------------------------------
    Oh Canada, we  stand on  guard for thee
    Protйgera  nos foy - ers et    nos droits

E|----------------------------------------------
B|----------------------------------------------
G|--0---0--0-0---0---0-----0---0-----0----0-----
D|--5--10-10-7---3---2-----0---5-----9---10-----
A|----------------------------------------------
E|----------------------------------------------
    Oh Ca-na-da, we  stand on  guard for thee
    Protй-ge-ra  nos foy - ers et    nos droits



Текст, аккорды и табулатура для песни "Oh Canada", исполняет "Misc".
Используемые в песне аккорды можно найти в разделе Как брать аккорды. Аккорды для шестиструнной гитары. Другие песни можно найти на нашем сайте, воспользовавшись алфавитным указателем вверху страницы.


 
Ошибка в тексте? Выделите ошибку и нажмите Ctrl+Enter