Song:Going Down
Artist:F.L.E
Album: Not yet out

This is a no named band but i thought this song was pretty good so i tabbed it.

Standard Tuning

Try to let it ring in the intro (its hard at the 0 2 2 2 part)

Intro

e------------------------------
b------------------------------
g-----2-----2-------2-----2----
d----2-2---2-2---0-2-2---2-2--- Repeat 4 times
a--0--------------------3------
e---------3--------------------

Verse

e-------------------------------|
b-------------------------------|
g-------------------7-x-x-x--5--|
d-7-x-x-x--5-x-x-x--7-x-x-x--5--|
a-7-x-x-x--5-x-x-x--5-x-x-x--3--|
e-5-x-x-x--3-x-x-x--------------|

Chorus

e-------------------------------------------------------
b-------------------------------------------------------
g-------------------------------7--7-7-x-x-x-x--5--5----
d-7--7-7-x-x-x-x--5--5-x-x-x-x--7--7-7-x-x-x-x--5--5----
a-7--7-7-x-x-x-x--5--5-x-x-x-x--5--5-5-x-x-x-x--3--3----
e-5--5-5-x-x-x-x--3--3-x-x-x-x--------------------------

Verse (again)

Solo

e----------------------------------------------------------
b----------------------------------------------------------
g----------------------------------------------------------
d----------------------------------------------------------
a-----7--7-7-7--5--5--3--3-3-3--5-5------------------------
e-5-5--------------------------------3--3--5--5--7--3--0--5

Repeat Solo (play fast)

Ending

e------------------------------
b------------------------------
g-----2-----2-------2-----2----
d----2-2---2-2---0-2-2---2-2--- Repeat 3 times then
a--0--------------------3------
e---------3--------------------

e------------------------------
b------------------------------
g-----2-----2-------2----------
d----2-2---2-2---0-2-2--------- Repeat 4 times
a--0--------------------0------
e---------3--------------------

Order of Song


Intr0
verse
chorus
verse 2
chorus
solo
chorus
ending (same as intro)




Текст, аккорды и табулатура для песни "Going Down", исполняет "Misc".
Используемые в песне аккорды можно найти в разделе Как брать аккорды. Аккорды для шестиструнной гитары. Другие песни можно найти на нашем сайте, воспользовавшись алфавитным указателем вверху страницы.


Слушать онлайн Going Down


Miss QuincyGoing Down на Яндекс.Музыке


 
Ошибка в тексте? Выделите ошибку и нажмите Ctrl+Enter