-== Brazilian Nacional Hymn==-
          tabbed by
  (Alexandre - Night Raider)
       (ICQ# - 3727476)


** Ignore Timing **


Intro


|-------------------------------2---------------------------|
|-----------------------------2---------------------0-------|
|---------0-0-0-0-0-4-4-4-4-4-----------0---0-2-4-2---4-2-2-|
|-0-0-0-0-------------------------0-0-0---4-----------------|


|-------------------------------4-2-1-1-------------------|
|-------------------0-0-0-0-0-4---------4-4-2-2-0-0-------|
|---------2-2-2-2-2---------------------------------2-2-4-|
|-2-2-2-2-------------------------------------------------|


|-----------------------------------------------------------------------|
|---------------------------------------0-------------------2-----------|
|---------0-0-0-0-0-4-0-0-0-0---2-2-2-2---2-2-2-2---4-4-4-4---4-4-4-4-0-|
|-0-0-0-0---------------------2-------------------4---------------------|


|-------------------------------------|
|-0-0-0-0---2-2-2-2-------------------|
|---------2---------4-0-0-------0-0-0-|
|-------------------------4-2-4-------|



1є Part


|-----------------------------------------------|
|-----------------0-1-2-----------------0-------|
|---0---0-2-4-2-4-------0---0---0-2-4-2---4-2-2-|
|-0---4-------------------0---4-----------------|


|-----------------------------------------------|
|-----------0---0-2-3-4-------------0---2-0-----|
|---2-1-2-4---4---------2---2-1-2-4---4-----3-4-|
|-2-----------------------2---------------------|


2є Part


|-------------------------------------------|
|-----0-----0-----4-2-0-0-------------------|
|-4-4---4-4---4-4---------4-4-2-2-----------|
|---------------------------------5-5-4-4-2-|


|-------------------------------------------|
|-----------------2-0-----------------------|
|-2-2-4-2-2-4-2-2-----4-4-2-2-0-0-----------|
|---------------------------------4-4-2-2-0-|


|---------------------------|
|---------------------------|
|---0-2-----0-2-4---0-2-4-4-|
|-0-----4-0-------0---------|


3є Part


|-------------------------------------------------|
|-------------------------------------------------|
|-0-2-0-0-0-0-0-2-0-0-2/5-2-4-2-2-2-2-2-4-2-2-4/7-|
|-------------------------------------------------|


|-------------------------------------------------------------|
|-----------------------------------------0-----------0-------|
|-4-5-4-4-4-4-4-5-4-4-5/9-5-4-2-2-0-0-2-4---4-2-0-------2-2-0-|
|-------------------------------------------------2-2---------|


|---------------------------------|
|-----1-2-0-------0---------------|
|-2-4-------4-2-----4-0-----------|
|---------------2-------2-0-2-4-0-|



How To Play


Intro      x1
1є Part    x1
2є Part    x1
1є Part    x1
3є Part    x1


Текст, аккорды и табулатура для песни "Brazillian National Hymn", исполняет "Misc".
Используемые в песне аккорды можно найти в разделе Как брать аккорды. Аккорды для шестиструнной гитары. Другие песни можно найти на нашем сайте, воспользовавшись алфавитным указателем вверху страницы.


 
Ошибка в тексте? Выделите ошибку и нажмите Ctrl+Enter