English:
Heh, old swedish song from Childrens TV. Pretty cool.


Norwegian/Swedish:
Husker du Albert Евеrg ре Barne-TV? Her er sangen i tab!

Any suggestions, comments or anything else mail me: [email protected]

Tuning: Standard E-A-D-G-B-e

e|-----------------------------------|----------------------------------------|
B|-----------------------------------|----------------------------------------|
G|-12--15--15--12--12----------------|---12--15--15--12--12-------------------|
D|----------------------15--15--13---|-----------------------15-13------------|
A|-----------------------------------|----------------------------------------|
E|-----------------------------------|----------------------------------------|

e|-----------------------------------|----------------------------------------|
B|--13---16--15-12-13--16--15-12-13--|----------------------------------------|
G|-----------------------------------|--14---16--15-12-13--16--15-12-13-------|
D|-----------------------------------|----------------------------------------|
A|-----------------------------------|----------------------------------------|
E|-----------------------------------|----------------------------------------|

e|---------------------------------------------------------------------------|
B|---------------------------------------------------------------------------|
G|---------------------------------------------------------------------------|
D|-13---16--15-12-13--16--15-12-10~~-----------------------------------------|
A|---------------------------------------------------------------------------|
E|---------------------------------------------------------------------------|


Текст, аккорды и табулатура для песни "Albert Еberg", исполняет "Misc".
Используемые в песне аккорды можно найти в разделе Как брать аккорды. Аккорды для шестиструнной гитары. Другие песни можно найти на нашем сайте, воспользовавшись алфавитным указателем вверху страницы.


 
Ошибка в тексте? Выделите ошибку и нажмите Ctrl+Enter