--------------------------------------------------------------------------- 
CASHING IN - Minor Threat 
----------------------------------------------------------------------------
By: Matt Snodgrass : [email protected] 

E :------|| ----------------|---------------- 1|----------------| 
B :------|| ----------------|---------------- ||----------------| 
G :------||*----------------|----------------*||----------------| 
D :------||*----------------|----------------*||8---8-8-8-7---3-| 
A :8-8-8-|| ----------------|----8-8---8-8-8- ||8---8-8-8-7---3-| 
E :------|| 6---6-6-6-5---1-|---------------- ||6---6-6-6-5---1-| 

E :--------------------- 5|------------------ 1|----------------| 
B :--------------------- ||------------------ ||----------------| 
G :----10-10---10-10-10-*||4---4-4---x-11-11-*||7-7-------------| 
D :----10-10---10-10-10-*||4---4-4---x-11-11-*||7-7---7---------| 
A :-----8--8----8--8--8- ||2---2-2---x--9--9- ||5-5---7---------| 
E :--------------------- ||------------------ ||------5---------| 

E :---------------- 3|----------------|----------------|----------------| 
B :---------------- ||----------------|----------------|----------------| 
G :5-5-------------*||--------5---5-5-|7---7-7-9---9-9-|--------5---5-5-| 
D :5-5---5---------*||7---7-7-5---5-5-|7---7-7-9---9-9-|7---7-7-5---5-5-| 
A :3-3---5--------- ||7---7-7-3---3-3-|5---5-5-7---7-7-|7---7-7-3---3-3-| 
E :------3--------- ||5---5-5---------|----------------|5---5-5---------| 

E :---------------- 3| 
B :---------------- || 
G :7---4---9-------*|| 
D :7---4---9-------*|| 
A :5---2---7------- || 
E :---------------- || 

-----------------------------------------------------------------------------


Текст, аккорды и табулатура для песни "Cashing In", исполняет "Minor Threat".
Используемые в песне аккорды можно найти в разделе Как брать аккорды. Аккорды для шестиструнной гитары. Другие песни можно найти на нашем сайте, воспользовавшись алфавитным указателем вверху страницы.


 
Ошибка в тексте? Выделите ошибку и нажмите Ctrl+Enter