SMILING AT STRANGERS ON TRAINS (BASS)

(standard tuning)

Verse:

G--------------------------------------
D------------------5-5-5-------7-7-7-7-
A-3-3-3-5-5-5-7-7-7-----0-0-0-0--------
E--------------------------------------

Pre-Chorus:

-silent-

Chorus:

G----------------------------------------------------------------------------------
D------------------------------5-5-5-5-5-5-7-7-7-7-5-5-5-5-------------------------
A-3-3-3-3-3-3-3-5-5-5-5-7-7-7-7----------------------------7-7-7-7-7-7-7-7-7-7-7-7-
E----------------------------------------------------------------------------------

G------------
D----9-9-9-9-
A------------
E-8-8--------

Bridge:

G--------------------------------------------------
D----9-9-9-9---9-9-9-9-----9-9-9-9-----10-12-10-10-
A--------------------------------------------------
E-8-8-------8-8-------10-10-------12-12------------

Chugging part of Outro:

G------------
D------------
A------------
E-8>-10>-12>-

Last part of Outro:

G----------------
D----10-12-10-10-
A----------------
E-12-------------

End on:

E-10/0


Текст, аккорды и табулатура для песни "Smiling At Strangers On Trains", исполняет "Million Dead".
Используемые в песне аккорды можно найти в разделе Как брать аккорды. Аккорды для шестиструнной гитары. Другие песни можно найти на нашем сайте, воспользовавшись алфавитным указателем вверху страницы.


 
Ошибка в тексте? Выделите ошибку и нажмите Ctrl+Enter