MACGYVER

(standard tuning)


intro riff:

6E -0--0--0--0--0---0-0-0-0-0-0--0-0-0-0-0--0-0-0-0-0-0--0-0-0-0-0-0-0-0-0--0-0-0-0-0-0-0-0-0--|
5B -0--0--0--0--0---0-0-0-0-0-0--0-0-0-0-0--0-0-0-0-0-0--1-1-1-1-1-1-1-1-1--1-1-1-1-1-1-1-1-1--|
4G -9--9--9--9--9---7-7-7-7-7-7--5-5-5-5-5--4-4-4-4-4-4--0-2-2-0-2-0-2-0-2--0-2-2-0-2-0-2-0-2--|
3D -10-10-10-10-10--9-9-9-9-9-9--7-7-7-7-7--5-5-5-5-5-5--3-3-3-3-3-3-3-3-3--3-3-3-3-3-3-3-3-3--|
2A -0--0--0--0--0---0-0-0-0-0-0--0-0-0-0-0--0-0-0-0-0-0--3-3-3-3-3-3-3-3-3--3-3-3-3-3-3-3-3-3--|


verse riff:

6E -0---0-----0----14-|
5B -0---0-----12---12-|
4G -9---7-----9----11-|
3D -x---x---9^10---0--|
2A -7---9-----0----0--|
1E -0-----------------|


pre-chorus riff:

2A -7^9-----7^9-7^9-----7^9-|
1E -----0-0---------0-0-----|


chugging:

3D -2-2-2-2-2-2-2-2-2-2-2-2-|
2A -2-2-2-2-2-2-2-2-2-2-2-2-|
1E -0-0-0-0-0-0-0-0-0-0-0-0-|


bridge riff:

5B ----------12-12----------------------------|
4G -9--9--9--9--9--11-11-11-11-12-12-12-12-12-|
3D -10-10-10-10-10-0--0--0--0--0--0--0--0--0--|
2A -0--0--0--0--0--0--0--0--0--0--0--0--0--0--|


heavy riff:

3D -4-4-4-4-4-4-4-4-4-4-4-4-4-4-4-4-4-4-2-----------|
2A -4-4-4-4-4-4-4-4-4-4-4-4-4-4-4-4-4-4---2-0-2-3-2-|
1E -0-2-2-2-0-2-0-2-2-2-0-2-0-2-2-2-0-2-------------|


song structure:

intro riff x2
first half of intro riff
verse riff, plucking through the chords, x4
pre-chorus riff x16
verse riff, hitting chords heavily x2
chugging, moving from palm-muted to open
bridge riff x8
intro riff x2
gentle strum through chords of first half of intro riff
heavy riff x4
break (on the nod)
heavy riff x 2 (palm muted second time)
break - first half of heavy riff on its own
intro riff played heavy x2
end


Текст, аккорды и табулатура для песни "Macgyver", исполняет "Million Dead".
Используемые в песне аккорды можно найти в разделе Как брать аккорды. Аккорды для шестиструнной гитары. Другие песни можно найти на нашем сайте, воспользовавшись алфавитным указателем вверху страницы.


 
Ошибка в тексте? Выделите ошибку и нажмите Ctrl+Enter