I GAVE MY EYES TO STEVIE WONDER

(standard tuning)


intro riff:

2A -----10-10-------10-10-|
1E -0-0---------0-0-------|


verse riff:

3D ----------------------0-0----0--0--0--0--0--0--0---------------------------|
2A -/10-10--10-10--9-9---0-0----0--0--0--0--0--0--0--/14-14-14-14-14-14-14-14-|
1E ---0--0---0--0--0-0--/8-8--/10-10-10-10-10-10-10----0--0--0--0--0--0--0--0-|


short chorus riff:

4G -4-4-4-4-4-4-4-4-4-4-4-4-4-4-4--4-4-4-4-4-4-4-4-4-4-4-4-4-4-4--|
3D -2-2-2-2-2-2-2-2-2-2-2-2-2-2-2--2-2-2-2-2-2-2-2-2-2-2-2-2-2-2--|
2A -2-2-2-2-2-2-2-2-2-2-2-2-2-2-2--2-2-2-2-2-2-2-2-2-2-2-2-2-2-2--|
1E -0-0-0-0-0-0-0-0-0-0-0-0-0-0-0--0-0-0-0-0-0-0-0-0-0-0-0-0-0-0--|

4G -2-2-2-2-2-2-2-2-2-2-2-2-2-2-2--4-4-4-4-4-4-4-4-4-4-4-4-4-4-4--|
3D -2-2-2-2-2-2-2-2-2-2-2-2-2-2-2--2-2-2-2-2-2-2-2-2-2-2-2-2-2-2--|
2A -3-3-3-3-3-3-3-3-3-3-3-3-3-3-3--2-2-2-2-2-2-2-2-2-2-2-2-2-2-2--|
1E --------------------------------0-0-0-0-0-0-0-0-0-0-0-0-0-0-0--|


midsection riff:

6E -0--0--0-0-0-0---0--0--0--0-|
5B -0--0--0-0-0-0---0--0--0--0-|
4G -5--7--4-4-5-5--11-11-12-12-|
3D -5--5--4-4-4-4---9--9--9--9-|


bridge riff:

2A -2-2-2-2---------0-0-0-0---------|
1E ---------3-3-3-3---------2-2-2-2-|


full chorus riff:

6E ------------------------------------------------------------|
5B ------------------------------------------------------------|
4G -4-4-4-4-4-4-4-4-4-4-4-4-4-4-4--2-2-2-2-2-2-2-2-2-2-2-2-2-2-|
3D -2-2-2-2-2-2-2-2-2-2-2-2-2-2-2--2-2-2-2-2-2-2-2-2-2-2-2-2-2-|
2A -2-2-2-2-2-2-2-2-2-2-2-2-2-2-2--3-3-3-3-3-3-3-3-3-3-3-3-3-3-|
1E -0-0-0-0-0-0-0-0-0-0-0-0-0-0-0------------------------------|

6E ------0-------0---0---0---0---0-0------------------------------|
5B ----0---0---0---0---0---0---0---0------------------------------|
4G -/5-------5-------4-------4-----0-0-0-0-0-0-0-0-0-0-0-0-0-2-2--|
3D --0-----------------------------0-0-0-0-0-0-0-0-0-0-0-0-0-0-0--|
2A --0-----------------------------3-3-3-3-3-3-3-3-3-3-3-3-3-3-3--|
1E ---------------------------------------------------------------|


solo / wah riff:

6E -----7---7---7---7---7---7---7-----5---5---5---5---5---5---5-|
5B -------------------------------------------------------------|
4G -5-5---5---5---5---5---5---5---5-5---5---5---5---5---5---5---|

6E -----------------------------------------------------------|
5B -7-7-7-7-7-7-7-8-8-8-8-8-8-8-0-0-0-0-0-0-0-0-0-0-0-0-0-0-0-|
4G -----------------------------5-5-5-5-5-5-5-5-5-5-5-5-5-5-5-|


song structure:

intro riff x12
intro riff (breakdown) x2
verse riff x4
short chorus riff
midsection riff x4
intro riff x 3 1/2
verse riff x4
short chorus riff
bridge riff x4
full chorus riff x3
solo / wah riff x 2
end


Текст, аккорды и табулатура для песни "I Gave My Eyes To Stevie Wonder", исполняет "Million Dead".
Используемые в песне аккорды можно найти в разделе Как брать аккорды. Аккорды для шестиструнной гитары. Другие песни можно найти на нашем сайте, воспользовавшись алфавитным указателем вверху страницы.


 
Ошибка в тексте? Выделите ошибку и нажмите Ctrl+Enter