Million Dead - Breaking The Back
Verse:
E|--------------------|
B|--------------------|
G|--------------------|
D|--------------------|
A|--------------------|
E|-0-0-14-0-0-0-0-10--|

Chorus:
E|----------------------------------------------------------------|
B|----------------------------------------------------------------|
G|----------------------------------------------------------------|
D|--9-9-x-x-7-7-11-11-9-9-9---------------------------------------|
A|--x-x-x-x-x-x-0--0--0-0-0---------------------------------------|
E|--7-7-x-x-7-7--------------0-0-14-0-0-0-0-10--0-0-14-0-0-0-0-10-|

E|---------------------------------------------------------------|
B|---------------------------------------------------------------|
G|---------------------------------------------------------------|
D|--9-9-x-x-7-7-11-11-9-9-9--9-9-9-9-9-9-9-9---------------------|
A|--x-x-x-x-x-x-0--0--0-0-0--x-x-x-x-x-x-x-x---------------------|
E|--7-7-x-x-7-7--------------8-8-8-8-8-8-8-8--0-0-14-0-0-0-0-10--|

E|----------------------------------------------------------------|
B|----------------------------------------------------------------|
G|----------------------------------------------------------------|
D|-9-9-x-x-7-7-11-11-9-9-9----------------------------------------|
A|-x-x-x-x-x-x-0--0--0-0-0----------------------------------------|
E|-7-7-x-x-7-7--------------0-0-14-0-0-0-0-10--0-0-14-0-0-0-0-10--|

E|----------------------------|
B|----------------------------|
G|----------------------------|
D|-9-9-x-x-7-7-10-10-9-9-9-9--| 
A|-x-x-x-x-x-x-x--x--x-x-x-x--| 
E|-7-7-x-x-7-7-8--8--8-8-8-8--| 

Chorus (1st Ending):
E|--------------------------------|
B|--------------------------------|
G|--------------------------------|
D|-5-5-5-5-5-5-5-5-5-5-5-5-5-5-5-|
A|-x-x-x-x-x-x-x-x-x-x-x-x-x-x-x-|
E|-3-3-3-3-3-3-3-3-3-3-3-3-3-3-3-|

Post-chorus riff:
E|-0-0-0--0--0--0-0-0--0--0--0-0-0--0--0--0-5-5-5-5-5-5--|
B|-0-0-0--0--0--0-0-0--0--0--0-0-0--0--0--0-5-5-5-5-5-5--|
G|-x-x-x--x--x--x-x-x--x--x--x-x-x--x--x--x-7-7-7-7-7-7--|
D|-2-2-10-10-10-2-2-10-10-10-2-2-10-10-10-2-7-7-7-7-7-7--|
A|-2-2-10-10-10-2-2-10-10-10-2-2-10-10-10-2-5-5-5-5-5-5--|
E|-0-0-11-11-11-0-0-11-11-11-0-0-11-11-11-0-5-5-5-5-5-5--|

Middle 8 (Riff 1):
E|-3-3-3-3-3--3-3-3-3-3--|
B|-3-3-3-3-3--3-3-3-3-3--|
G|-5-5-5-4-4--5-5-5-4-4--|
D|-3-3-3-3-3--3-3-3-3-3--|
A|-0-0-0-0-0--0-0-0-0-0--|
E|-----------------------|

Middle 8 (Riff 2):
E|-3-3-3-3-3-3-3-3-3-3-3-3-3-3-3-3--3-3-3-3-3-3-3-3--|
B|-3-3-3-3-3-3-3-3-3-3-3-3-3-3-3-3--3-3-3-3-3-3-3-3--|
G|-5-5-5-4-4-4-4-5-5-5-5-4-4-4-4-4--5-5-5-4-4-4-4-5--|
D|-3-3-3-3-3-3-3-3-3-3-3-3-3-3-3-3--3-3-3-3-3-3-3-3--|
A|-0-0-0-0-0-0-0-0-0-0-0-0-0-0-0-0--0-0-0-0-0-0-0-0--|
E|---------------------------------------------------|

Middle 8 Riff 3:
E|-3-3-3-3-3-3-3-3---------------------------------|
B|-3-3-3-3-3-3-3-3---------------------------------|
G|-5-5-5-4-4-4-4-4--5-5-5-5-9-9--0-2-2-2--0-2-2-2--|
D|-3-3-3-3-3-3-3-3--7-7-7-7-7-7--2-3-3-3--2-3-3-3--|
A|-0-0-0-0-0-0-0-0--0-0-0-0-0-0--0-0-0-0--0-0-0-0--|
E|-------------------------------------------------|

E|------------------------------------------------------------------|
B|------------------------------------------------------------------|
G|-10-10-10-9-9-9-9-5-5-5-5-7-7-7-7-4--4-4-4-4-5--2--2-2-2-2-2-2-2--|
D|-x--x--x--x-x-x-x-x-x-x-x-x-x-x-x-x--x-x-x-x-x--3--3-3-3-3-3-3-3--|
A|-8--8--8--8-8-8-8-7-7-7-7-7-7-7-7-3--3-3-3-3-3--0--0-0-0-0-0-0-0--|
E|------------------------------------------------------------------|

Middle 8 (Riff 3) second ending:
E|--------------------------------------------------------------------|
B|--------------------------------------------------------------------|
G|-10-10-10-9-9-9-9-5-5-5-5-7-7-7-7-4--4-4-4-4-4-4-4-4-4-4-4-4-4-4-4--|
D|-x--x--x--x-x-x-x-x-x-x-x-x-x-x-x-x--x-x-x-x-x-x-4-4-4-4-4-4-4-4-4--|
A|-8--8--8--8-8-8-8-7-7-7-7-7-7-7-7-3--3-3-3-3-3-3-3-3-3-3-3-3-3-3-3--|
E|--------------------------------------------------------------------|

Song Structure:
Verse Riff (Clean x8)
Verse Riff (Distorted x16)
Chorus Riff (w/ First Ending)
Post-Chorus Riff (x2)
Verse Riff (x8)
Chorus Riff
Middle 8 (Riff 1)
Middle 8 (Riff 2)
Middle 8 (Riff 3) (Second time with the second ending)
Guitar Solo ????
Verse Riff (x8)


Текст, аккорды и табулатура для песни "Breaking The Back", исполняет "Million Dead".
Используемые в песне аккорды можно найти в разделе Как брать аккорды. Аккорды для шестиструнной гитары. Другие песни можно найти на нашем сайте, воспользовавшись алфавитным указателем вверху страницы.


 
Ошибка в тексте? Выделите ошибку и нажмите Ctrl+Enter