Song:Understand
Artist:Millencolin
Tabbed by:Drй

:=let ring
]=pickslide
/=slide to

Intro
e|---------------------|
B|---------------------|
G|---5---5-5----4---4-4|
D|7-7-7-7-7--5-5-5-5-5-|
A|---------------------|
E|---------------------|
      X4 (palm mute)

Pre-verse
e|----------------------|--|
B|----------------------|--|
G|--------5----9-9------|9-|
D|7-7-9-10--------9-10-7|-7|
A|----------------------|--|
E|----------------------|--|
             X2

Verse
e|----------------------------------------------|
B|----------------------------------------------|
G|--------------10-10-10-12-12-12-9-9-9-9-------|
D|7-7-7-10-10-10-------------------------7-7-7-7|
A|----------------------------------------------|
E|----------------------------------------------|

Chorus
e|------------------------------------------
B|------------------------------------------
G|------------------------------------------
D|9-9-999-5-5-555-12-12-121212-121212-121212
A|------------------------------------------
E|------------------------------------------

e|------------------------------------------
B|------------------------------------------
G|------------------------------------------
D|7-7-777-777-777-10-10-101010-101010-101010
A|------------------------------------------
E|------------------------------------------

e|-----------------------------------------------
B|-----------------------------------------------
G|-----------------------------------------------
D|5-5-555-555-555-3-3-333-333-333-0-0-000-000-000
A|-----------------------------------------------
E|-----------------------------------------------

e|-------------------------------------------------------------------|
B|-------------------------------------------------------------------|
G|9---9---9---9----5---5---5---5----7---7---7---7----4---4---4---4---|
D|-7-7-7-7-7-7-7-7--3-3-3-3-3-3-3-3--5-5-5-5-5-5-5-5--2-2-2-2-2-2-2-2|
A|-------------------------------------------------------------------|
E|-------------------------------------------------------------------|

2nd Pre-verse
e|------------------------|
B|------------------------|
G|9:----------------------|
D|------------------------|
A|--]]]]]]]]]]]]]]]]]]]]]-|
E|--]]]]]]]]]]]]]]]]]]]]]-|

End
e|---------------------------------------------------------------|
B|-------------------------------------------------10-8-6-5-3/5-5|
G|9---9---9---9---9---9---9---9---9---9---9---9------------------|
D|-7-7-7-7-7-7-7-7-7-7-7-7-7-7-7-7-7-7-7-7-7-7-7-7---------------|
A|---------------------------------------------------------------|
E|---------------------------------------------------------------|

Order
Intro
Pre-verse
Versex5
Chorus
2nd Pre-verse
versex4
chorus
End


Текст, аккорды и табулатура для песни "Understand", исполняет "Millencolin".
Используемые в песне аккорды можно найти в разделе Как брать аккорды. Аккорды для шестиструнной гитары. Другие песни можно найти на нашем сайте, воспользовавшись алфавитным указателем вверху страницы.


 
Ошибка в тексте? Выделите ошибку и нажмите Ctrl+Enter