Millencolin
Mr. Clean
Same Old Tunes
Guitarist: Erik Ohlsson & Mathias Fдrm
Tabbed By: Marcelo Riffo([email protected])

Ok Here`s a Song the DAMM COOL!!!!!!!!!!!! one of the greatest Song of mc!
It doesn`t have a solo but it has a very cool riff.

Intro: Guitar 1
(Mr clean tells me.....)
e[------------------------------------------------------]
b[------------------------------------------------------]
g[------------------------------------------------2-----]
d[---4444444444444-66-7777777777777-------------5-2-----]Heavy palm mute!
a[---2222222222222-44-5555555555555--4444444444-5-0-----]
E[-----------------------------------2222222222-3-------]
     P.M           P.M P.M           P.M        superchord!!!the both!

then comes in the all the others instruments:

Guitar 1: Riff!
e[---------------------------------------------]    [----------------
b[---------------------------------------------]    [----------------
g[---11-9-11---------12---------9--------------]    [----------------
d[-----------9999999----9999999---999-11-9-8---]X2  [-9-8-9-8-9-8----
a[---------------------------------------------]then[----------------
E[---------------------------------------------]    [----------------

Guitar 2:

e[------------------------------]
b[------------------------------]
g[---44444-------222222---------]
d[---44444-55555-222222-44444---] X 2
a[---22222-55555-000000-44444---]
E[---------33333--------22222---]

Verse: Both Guitars               Pre Chorus:

e[------------------------------] ----------------
b[------------------------------] ---------------- 
g[---44444-------222222---------] -------22222----
d[---44444-55555-222222-44444---] 55555--22222----
a[---22222-55555-000000-44444---] 55555--00000----
E[---------33333--------22222---] 33333-----------

Chorus

e[----------------------------------]
b[----------------------------------]
g[---44444-77777777-------------2---]
d[---44444-77777777-44444-555-5-2---] X 2
a[---22222-55555555-44444-555-5-0---]
E[------------------22222-333-3-----]

Then THE Riff!

Then The second verse(the same as the first one)

Then The Chorus

Then the Interlude:

e[--------------------------------------------]
b[--------------------------------------------]
g[----777-22222-------444444-4-2-----222------]
d[---5555-22222-44444-444444-4-2-555-222------] 
a[---5555-00000-44444-222222-2-0-555-000------]
E[---3333-------22222------------333----------]

Then chorus

Then THE Riff: THE Riff has one difference. When the song finish do this:

e[----------------------------------]
b[----------------------------------]
g[-------------------11-9-----------]
d[---9-8-9-8-9-8-9-8------12-10-9---]
a[----------------------------------]
E[----------------------------------]

Guitar 2 Ends on: 

e[-----]
b[-----]
g[--4--]
d[--4--]
a[--2--]
E[-----]

And That`s all!thank you!


Текст, аккорды и табулатура для песни "Mr Clean", исполняет "Millencolin".
Используемые в песне аккорды можно найти в разделе Как брать аккорды. Аккорды для шестиструнной гитары. Другие песни можно найти на нашем сайте, воспользовавшись алфавитным указателем вверху страницы.


 
Ошибка в тексте? Выделите ошибку и нажмите Ctrl+Enter