Song: Dr. Jackal & Mr. Hide 
Band: Millencolin 
Album: Life on a plate 
Tabbed by: Martijn de Wilde ([email protected]) 

> means 8x, r means let ring... 

Intro 
G--77-76--- 
D-5--5----- 
A---------- 
E---------- 

Verse 
G-----------------7--- 
D----------5555-7----- 
A-2222-5-0------------ 
E--------------------- 

Chorus   > means 8x 
G------------------|---------- 
D------------------|---------- 
A-------------5>---|---------- 
E-3>--5>--7>-------|-3>--5>--- 

Bridge   r means let ring, > means 8x 
G-------------------------------- 
D-------------------------------- 
A-2r------------2>--0>--5>--0>--- 
E-------------------------------- 

Pretty easy, 'cause I fixed it in about 5 minutes! 



Текст, аккорды и табулатура для песни "Dr Jackal And Mr Hide", исполняет "Millencolin".
Используемые в песне аккорды можно найти в разделе Как брать аккорды. Аккорды для шестиструнной гитары. Другие песни можно найти на нашем сайте, воспользовавшись алфавитным указателем вверху страницы.


 
Ошибка в тексте? Выделите ошибку и нажмите Ctrl+Enter