DEVIL ME - Millencolin

By: EasyE

 Verse:     p.m. listen to the Cd for timing 
e|---------------------------------------------------------------------------|
B|---------------------------------------------------------------------------|
G|----7-7-------------5-5-5-5-4-4-------7-7-7--------------------------------|
D|----7-7---5-5-5-5-5-5-5-5-5-4-4-7-7-7-7-7-7-5-5-5--------------------------|
A|----5-5---5-5-5-5-5-3-3-3-3-2-2-7-7-7-5-5-5-5-5-5--------------------------|
E|--------- 3-3-3-3-3-------------5-5-5-------3-3-3--------------------------|
            Yes, Im a Yugoslav, indeed a sweed.....

     Pre-chorus
e|--O--O--O--14-14-14---O--O--O--14-14-14---O--O--O--14-14-14--16------------|
B|-12-12-12--12-12-12--12-12-12--12-12-12--12-12-12--12-12-12--12------------|
G|---------------------------------------------------------------------------|
D|---------------------------------------------------------------------------|
A|---------------------------------------------------------------------------|
E|---------------------------------------------------------------------------|
    All this I adore at the same time.....       

Chorus:
e|---------------------------------------------------------------------------|
B|---------------------------------------------------------------------------|
G|---------7---9---5-------7---9---5-------5---------------------------------|
D|-----5---7---9---5---5---7---9---5---7---5---5-----------------------------|
A|-----5---5---7---3---5---5---7---3---7---3---5-----------------------------|
E|-----3---------------3---------------5-------3-----------------------------|
       I want it all....

Bridge after 2nd chorus:
e|---------------------------------------------------------------------------|
B|---------------------------------------------------------------------------|
G|----7---5------------------------------------------------------------------|
D|----7---5------------------------------------------------------------------|
A|----5---3------------------------------------------------------------------|
E|---------------------------------------------------------------------------|
     Where ever I go.....  

    Solo:
e|---------------------------------------------------------------------------|
B|----10---8-8-8---10---8-8-8---10---8-8-8---7---8-8-8-----------------------|
G|---------------------------------------------------------------------------|
D|---------------------------------------------------------------------------|
A|---------------------------------------------------------------------------|
E|---------------------------------------------------------------------------|


Текст, аккорды и табулатура для песни "Devil Me", исполняет "Millencolin".
Используемые в песне аккорды можно найти в разделе Как брать аккорды. Аккорды для шестиструнной гитары. Другие песни можно найти на нашем сайте, воспользовавшись алфавитным указателем вверху страницы.


 
Ошибка в тексте? Выделите ошибку и нажмите Ctrl+Enter