Intro
--------------------------------------------------------
--------------------------------------------------------
-555-555-555-555----------------------------------------
-555-555-555-555--55-5555-5555-55-5-5-5-----------------
-333-333-333-333--55-5555-5555-55-5-5-5-----------------
------------------33-3333-3333-33-3-3-3-----------------

--------------------------------------------------------
--------------------------------------------------------
-5-5-5-5----------------5-5--9-9-------------5-----5----
-5-5-5-5--3-3--5-5------5-5--9-9--3-3--5-5---5-333-5----
-3-3-3-3--3-3--5-5-X2---3-3--7-7--3-3--5-5---3-333-3----
----------1-1--3-3----------------1-1--3-3-----111------

Verse
--------------------------------------------------------
--------------------------------------------------------
--------------5-5-------5-5-----------------------------
-7-----3------5-5--333--5-5--333--------X3---------------
-7-X4--3-X4---3-3--333--3-3--333-----------------------
-5-----1-----------111-------111------------------------

--------------------------------------------------------
--------------------------------------------------------
--------------------------------------------------------
-7-----3-----5555-5555-5555-5-5-5-----------------------
-7-X4--3-X4--5555-5555-5555-5-5-5-----------------------
-5-----1-----3333-3333-3333-3-3-3-----------------------
Chorus
--------------------------------------------------------
--------------------------------------------------------
-5-5-5-5----------------5-5--9-9-------------5-----5----
-5-5-5-5--3-3--5-5------5-5--9-9--3-3--5-5---5-333-5----
-3-3-3-3--3-3--5-5-X2---3-3--7-7--3-3--5-5---3-333-3----
----------1-1--3-3----------------1-1--3-3-----111------

--------------------------------------------------------
--------------------------------------------------------
--------------------------------------------------------
-5-----5-3-----3-5-----5-3----7----5----3---------------
-5-----5-3-----3-5-----5-3----7-X4-5-X4-3----X2---------
-3-----3-1-----1-3-----3-1----5----3----1---------------
Solo
--------------------------------------------------------
--------------------------------------------------------
-/12-12-12-10-9/14-14-12-10-9/12-12-12-10-9/14-14-12-10-
--------------------------------------------------------
--------------------------------------------------------
--------------------------------------------------------

--------------------------------------------------------
--------------------------------------------------------
9/12-12-12-12-12-12-14-14-14-14-16-16-16-16-17----------
--------------------------------------------------------
--------------------------------------------------------
--------------------------------------------------------

--------------------------------------------------------
--------------------------------------------------------
--------------------------------------------------------
-----7----5----3----------------------------------------
-----7-X4-5-X4-3----X2----------------------------------
-----5----3----1----------------------------------------

--------------------------------------------------------
--------------------------------------------------------
-5-5-5-5----------------5-5--9-9-------------5-------5--
-5-5-5-5--3-3--5-5------5-5--9-9--3-3--5-5---5-3-3-3-5--
-3-3-3-3--3-3--5-5-X2---3-3--7-7--3-3--5-5---3-3-3-3-3--
----------1-1--3-3----------------1-1--3-3-----1-1-1----

Submitted by Carly Ford



Текст, аккорды и табулатура для песни "Botanic Mistress", исполняет "Millencolin".
Используемые в песне аккорды можно найти в разделе Как брать аккорды. Аккорды для шестиструнной гитары. Другие песни можно найти на нашем сайте, воспользовавшись алфавитным указателем вверху страницы.


 
Ошибка в тексте? Выделите ошибку и нажмите Ctrl+Enter