MILLENCOLIN - BLACK EYE

Tabbed by Skasolo
[email protected]

INTRO: 
guitar 1 
e|--------2------2----2---333-222----------------|
B|---------3------3----3-------------------------|
G|---4-4------4----------------------------------|
D|-----------------------------------------------|
A|-----------------------------------------------|
E|-----------------------------------------------|
  
guitar 2 - come in after guitar 1 has played intro twice.
keep repeating guitar 1
e|-----------------------------------------------|
B|-----------------------------------------------|
G|---4---------7---------------------------------|x4
D|---4----5----7----7----------------------------|
A|---2----5----5----7----------------------------|
E|--------3---------5----------------------------|

VERSE 1: 
guitar 1 - (listen to song for timing) 
e|-----------------------------------------------|
B|-----------------------------------------------|
G|--4--44-4--44--44-4---------7-77-7-66-777------|
D|--x--xx-x--xx--xx-x---------x-xx-x-xx-xxx------|x2
A|--2--22-2--22--22-2---------5-55-5-44-555------|
E|-----------------------------------------------|

guitar 2 - let first chord ring for first half of verse 
e|------||---------------------------------------|
B|--4---||--8---------10--12--10--12--8----------|
G|--x---||--x----------x---x---x---x--x----------|
D|--2---||--6----------8--10---8--10--6----------|
A|------||---------------------------------------|
E|------||---------------------------------------|

CHORUS:	intro, then
e|--------------------------------|
B|--------------------------------|
G|--------------------------------|
D|---5----------------------------|
A|---5----------------------------|
E|---3----------------------------|

VERSE 2:
guitar 1: same as first verse
guitar 2:play same as guitar 1 for first half, then:
e|---------------------------|
B|--8--10--12--12------------|
G|--x---x---x---x------------|x2
D|--6---8--10--10------------|
A|---------------------------|
E|---------------------------|

BRIDGE: pm first chord, then lift
e|---------------------------------|
B|---------------------------------|
G|-----------7---------------------|
D|---5---5---7---7-----------------|
A|---5---5---5---7-----------------|
E|---3---3-------5-----------------|
 
  guitar 2 - play when guitar 1 is playing D5
e|---------------------------------|
B|----8---12-------13--12----------|
G|----x----x--------x---x----------|
D|----6---10-------11--10----------|
A|---------------------------------|
E|-------(X3)----------------------|
	 
CHORUS

OUTRO: guitar 2 (something like this
e|------------------------------|
B|-----------------------------=|
G|-----12--9--8-----------------|
D|------x--x--x-----------------|
A|-----10--7--6-----------------|
E|------------------------------|

Hope this helps a bit.
If any one has any frenzal rhomb
tabs from sans soucci, please email me


Текст, аккорды и табулатура для песни "Black Eye", исполняет "Millencolin".
Используемые в песне аккорды можно найти в разделе Как брать аккорды. Аккорды для шестиструнной гитары. Другие песни можно найти на нашем сайте, воспользовавшись алфавитным указателем вверху страницы.


 
Ошибка в тексте? Выделите ошибку и нажмите Ctrl+Enter