Arist : Mighty Mighty Bosstones
Title : So Sad To Say
Tabbed By : Rishesh Singh 
E-Mail: [email protected]


Intro:

E------------------------------------------------------------------------
B-------3----3-3-3-3---------------------3------3-3--6p4--3--3-3--6p4--3-
G-3-------3-----------5p3--5--3-----3--------3---------------------------
D----3---------------------------------3---------------------------------
A------------------------------------------------------------------------
E------------------------------------------------------------------------

Intro (continued)

E------------------------------------
B-3-3---6p4--3---4--3--4--3--1-------
G---------------------------------3--
D------------------------------------
A------------------------------------
E------------------------------------

Verse (Rhythm Not shown):

E--------
B--------
G--------
D-3--5--7
A-3--5--7
E-1--3--5
 

Pre-Chorus (Just One More Think Ok..)Trumpet part:

E-6-6-6---5---3-
B-6-6-6---5---3-
G---------------
D---------------
A---------------
E---------------

Chorus Rhythm Guitar/Chords:

E--L-e-t--t-h-e-m--r-i-n-g--
B---------------------------
G-7-------5---------3-------
D-7-------5---------3-------
A-5-------3---------1-------
E---------------------------


Chorus Lead Guitar:

E-------------------------------
B----1--3-----4--3--1----1--3---
G-3--------------------3--------
D-------------------------------
A-------------------------------
E-------------------------------

Play Verse, then for before the slow breakdown part play intro....

Slow Breakdown Part (My anemosity has got the best of me....|pretty close - not exact)

E-----------------------------
B---------------------3-3-3-3-
G---3-3-3-3-----------3-3-3-3- Repeat
D---3-3-3-3--3-3-3-3----------
A------------3-3-3-3----------
E-----------------------------
Palm Muted......

Then repeat Chorus
Then Solo


Solo (sounds pretty close... ^=bend)

E-13--10--11--10---^------13--10--11--10-----13--10--11-10----^---13---15--13--
B-----------------11-----------------------------------------11----------------
G------------------------------------------------------------------------------
D------------------------------------------------------------------------------
A------------------------------------------------------------------------------
E------------------------------------------------------------------------------

There ye go...

~Rishesh


Текст, аккорды и табулатура для песни "So Sad To Say", исполняет "Mighty Mighty Bosstones".
Используемые в песне аккорды можно найти в разделе Как брать аккорды. Аккорды для шестиструнной гитары. Другие песни можно найти на нашем сайте, воспользовавшись алфавитным указателем вверху страницы.


 
Ошибка в тексте? Выделите ошибку и нажмите Ctrl+Enter