Song: Just Rock and Roll
Artist: Midtown
Album: Save the World, Lose the Girl
Tabbed By: Jimmy B.

This is a damn decent song. The number of notes played in some riffs 
varies, but it's not hard to hear on the CD.

* = Let the note ring

Intro/After Chorus

G:------------------|
D:------------------|
A:------33---55-----|
E:-11------------66-|

At the end of the INTRO, strum

E:-6666-8888-|

This is what varies most when this riff is played at other times.

After intro, when the guitar plays

G:-------------------------------|
D:-------------------------------|
A:------3333-5555----------------|
E:-1111-----------5555-6666-8888-|

Verse 1

G:---------------------------------------|
D:---------------------------------------|
A:----------33333333-5555----------------|
E:-11111111---------------5555-6666-8888-|

Chorus

G:-------------------------------------|
D:-------------------------------------|
A:----------33333333----------11111111-|
E:-11111111----------33333333----------|

Now play the intro, but at the end of it play

E:-66666666-88888888-|

For the first half of Verse 2, play this:

G:----------------------|
D:----------------------|
A:----3*--5-5-----------|
E:-1*--------5-56-68-81-|

Then go back to Verse 1 for the second half, then the chorus again.

Bridge

G:------------------------------------------------------------------------|
D:------------------------------------------------------------------------|
A:-5555555555555555-------------------------------------------------------|
E:------------------666666666666666-4-5555-66666666-77777777-66666666-----|

G:-----------------------------------------------------------------------|
D:-----------------------------------------------------------------------|
A:-5555555555555555------------------------------------------------------|
E:------------------6666666666666666-4-5555-6666-6-6-6-77777777-66666666-|

G:-----------------|
D:-----------------|
A:-----------------|
E:-4-5555-66666666-|

G:--------------------------------------|
D:--------------------------------------|
A:-------------------11111111-33333333--|
E:-11111111-33333333--------------------|

Then just go back to the intro.

That's it. I had to listen to this pretty carefully to tab it, but it 
sounds fine to me. Email me at [email protected] with any 
corrections, comments or suggestions for a good name for my band.


Текст, аккорды и табулатура для песни "Just Rock And Roll", исполняет "Midtown".
Используемые в песне аккорды можно найти в разделе Как брать аккорды. Аккорды для шестиструнной гитары. Другие песни можно найти на нашем сайте, воспользовавшись алфавитным указателем вверху страницы.


 
Ошибка в тексте? Выделите ошибку и нажмите Ctrl+Enter