-------------------------------------------------------------------------------
                                    GET IT TOGETHER - Midtown
-------------------------------------------------------------------------------

Tuning - 1/2 step down

Tabbed by Chava Рйrеz([email protected])

Intro (clean)
---------------------------0-1-0------------
-----1--------1--------1----------1---------
---0---0----0---0----0---0----------2-------
----------0--------2------------------2-----
-3------------------------------------------
------------------------------------------1-

2X (hold C chord at the end of the second time)
------------------------------------------------------------
------------------------------------------------------------
-5-5-5-5--------------------------------------------9-10--9—
-5-5-5-5--5-5-5-5--7-7-7-7--2-2-2-2--3-3-3-3-3-3------------
-3-3-3-3--5-5-5-5--7-7-7-7--2-2-2-2--3-3-3-3-3-3----7--8--7-
----------3-3-3-3--5-5-5-5--0-0-0-0--1-1-1-1-1-1------------

Lead guitar (played over above part – same as chorus)
--------------------------------------------------------------
------------------------------------------------8-10-8--------
-------12----14-12----12--------14-12--------------------10-9-
-10-10----10-------14-----10-10-------14-12-14-10-------------
--------------------------------------------------------------
--------------------------------------------------------------

---------------------------------------------------------------------------
----------------------------------------------8-10-8-----------------------
-12-12-14-12----14--------14-12-----14—12-12----------10-9---9-10-9--
-------------14-----10-10-------14-----------------------------------12-10-
---------------------------------------------------------------------------
---------------------------------------------------------------------------

Verse 2X
-----------------------------------------------
-----------------------------------------------
-5-5-5-5-5-------------------------------------
-5-5-5-5-5---3-3-3-3-3---7-7-7-7-7---3-3-3-3-3-
-3-3-3-3-3---3-3-3-3-3---7-7-7-7-7---3-3-3-3-3-
-------------1-1-1-1-1---5-5-5-5-5---1-1-1-1-1-
                                                    verse lead part
---------------------------------------------------  -----------------------
---------------------------------------------------  -----------------------
-5-5-5-5-5-----------------------------------------  -14-14-14-14--12-10--9-
-5-5-5-5-5---3-3-3-3-3---7-7-7-7---5—-3-3-3-—2-2-2-  --------------
-3-3-3-3-3---3-3-3-3-3---7-7-7-7---5—-3-3-3-—2-2-2-  1212121210-87-
-------------1-1-1-1-1---5-5-5-5---3—-1-1-1—-0-0-0-  --------------

Pre-Chorus
----------------------------------------------------------
----------------------------------------------------------
-7-7--7-7-7-7---------------------------------------------  2X
-7-7--7-7-7-7---3-3--3-3-3-3---7-7--7-7-7-7--7-7--7-7-7-7-then
-5-5--5-5-5-5---3-3--3-3-3-3---7-7--7-7-7-7--7-7--7-7-7-7-
----------------1-1--1-1-1-1---5-5--5-5-5-5--5-5--5-5-5-5-

-----------------------------------
-----------------------------------
-----------------------------------
-5-5-5-5-5-5-5-5---3-3-3-3-3-3-3-3-
-5-5-5-5-5-5-5-5---3-3-3-3-3-3-3-3-
-3-3-3-3-3-3-3-3---1-1-1-1-1-1-1-1-

Chorus 2X
------------------------------------------------------------
------------------------------------------------------------
-5-5-5-5--------------------------------------------9-10--9—
-5-5-5-5--5-5-5-5--7-7-7-7--2-2-2-2--3-3-3-3-3-3------------
-3-3-3-3--5-5-5-5--7-7-7-7--2-2-2-2--3-3-3-3-3-3----7--8--7-
----------3-3-3-3--5-5-5-5--0-0-0-0--1-1-1-1-1-1------------

Chorus Lead Part(starts after the first time he sings “get it together”)
---------------------------------------------------------------------
-8-10-8--------------------------------------------------------------
--------10-9---4--5----9---14--14---12--14--12---12-14-12---12-14-12-
---------------------------------------------------------------------
---------------2--3----7---12--12---10--12--10---10-12-14---10-12-14-
---------------------------------------------------------------------

Verse 2X (2nd time – no palm mute)
---------------------------------------------------
---------------------------------------------------
-5-5-5-5-5------------woo--------------------------
-5-5-5-5-5---3-3-3-3------7-7-7-7-7---3-3-3--3-3-3-
-3-3-3-3-3---3-3-3-3------7-7-7-7-7---3-3-3--3-3-3-
-------------1-1-1-1------5-5-5-5-5---1-1-1--1-1-1-
                                            ……pm……

Lead Part 2X                                     end with this 2nd time
----------------------------------------------   -----------------
----------------------------------------------   -----------------
-5-5-5-5-5---9-9-10-9----------------9-9-10-9-   -9-9-10--9--7--9-
-5-5-5-5-5----------------7-7-7-7-7-----------   -----------------
-3-3-3-3-3---7-7--8-7-----7-7-7-7-7--7-7--8-7-   -7-7--8--7--5--7-
--------------------------5-5-5-5-5-----------   -----------------

Verse (same as first verse, but with palm muted guitar)
Pre-Chorus
Chorus

Go..Try..
------------------------------------------------------------------------
------------------------------------------------------------------------
-5-5---5--------------------------5-5---5-------------------------------
-5-5---5-3-3---3-7-7---7-3-3----3-5-5---5-3-3---3-7-7---7--3-3-3--3-3-3-
-3-3---3-3-3---3-7-7---7-3-3----3-3-3---3-3-3---3-7-7---7--3-3-3--3-3-3-
---------1-1---1-5-5---5-1-1----1---------1-1---1-5-5---5--1-1-1--1-1-1-
                                                          ……pm…………pm……
Lead Part
---starts after he----------starts as he---------
---sings “go,try”-----sings “make things right”-
-9-9--14-14--12--9-------12--14--12-14-12--------
-------------------------------------------------
-7-7--12-12--10--7-------10--12--10-12-10--------
-------------------------------------------------

-----------------------------------------------
-----------------------------------------------
-5-5-5-5-5-------------------------------------
-5-5-5-5-5---3-3-3-3-3---7-7-7-7-7---3-3-3-3-3-
-3-3-3-3-3---3-3-3-3-3---7-7-7-7-7---3-3-3-3-3-
-------------1-1-1-1-1---5-5-5-5-5---1-1-1-1-1-
                                           lead part
-----------------------------------------   -------------
-----------------------------------------   -8--8--10--8-
-5-5-5-5-5-------------------------------   --- starts after he sings
-5-5-5-5-5---3-3-3-3-3---7------5------3-   ---“move on with your life”
-3-3-3-3-3---3-3-3-3-3---7------5------3-   -------------
-------------1-1-1-1-1---5------3------1-   -------------

clean – comes in right after the previous lead part
-----0---0-1-0------0-----0-----0-1-0------------
-------1--------1------1----1----------1---------
---2--------------2----------------------2-----5-
-3---------------------------------------------5-
-----------------------------------------------3-
-------------------------------------------------

(clean) Maybe we’ll see this through… 
------------------------------------------
------------------------------------------
-5-5-5-5---7-7-7-7---9--9-9-9-9-9-9-9-----
-5-5-5-5---7-7-7-7---1010101010101010---3-
-3-3-3-3---5-5-5-5---7--7-7-7-7-7-7-7---3-
----------------------------------------1-

Yeah...Go..Try..
------------------------------------------------------------------------
------------------------------------------------------------------------
-5-5---5--------------------------5-5---5-------------------------------
-5-5---5-3-3---3-7-7---7-3-3----3-5-5---5-3-3---3-7-7---7--3-3-3--3-3-3-
-3-3---3-3-3---3-7-7---7-3-3----3-3-3---3-3-3---3-7-7---7--3-3-3--3-3-3-
---------1-1---1-5-5---5-1-1----1---------1-1---1-5-5---5--1-1-1--1-1-1-
                                                          ……pm…………pm……

Lead Part
-starts as he--------------
-sings “make things right”-
-12--14--12-14-12----------
---------------------------
-10--12--10-12-10----------
---------------------------

-----------------------------------------------
-----------------------------------------------
-5-5-5-5-5-------------------------------------
-5-5-5-5-5---3-3-3-3-3---7-7-7-7-7---3-3-3-3-3-
-3-3-3-3-3---3-3-3-3-3---7-7-7-7-7---3-3-3-3-3-
-------------1-1-1-1-1---5-5-5-5-5---1-1-1-1-1-

-----------------------------------------
-----------------------------------------
-5-5-5-5-5-------------------------------
-5-5-5-5-5---3-3-3-3-3---7------5------3-
-3-3-3-3-3---3-3-3-3-3---7------5------3-
-------------1-1-1-1-1---5------3------1-

-------------------------------------------------------------------------------


Текст, аккорды и табулатура для песни "Get It Together", исполняет "Midtown".
Используемые в песне аккорды можно найти в разделе Как брать аккорды. Аккорды для шестиструнной гитары. Другие песни можно найти на нашем сайте, воспользовавшись алфавитным указателем вверху страницы.


Слушать онлайн Get It Together


MidtownGet It Together на Яндекс.Музыке


 
Ошибка в тексте? Выделите ошибку и нажмите Ctrl+Enter