Too Much Sunshine

Transcribed by Matt Sheumack

If you want stacks of oils tabs the most on the net come here
http://www.angelfire.com/rock3/oils_tabs/index.html

This song is tabbed for two guitars. The First Guitar is not capoed (jim)
plays Riff 1. and Plays the Choruses As G# E B F# and various other fills.
as well as the solo.

The Second Guitar (martin) is capoed at the fourth fret and doesn't play
Riff 1., but plays riff 2. for the bridge. During the Choruses play chord
formations Em C G D relative to the capo.

I've tryed to mark which guitar is playing what as clearly as possible.

Intro: Guitar 1. Only

Riff 1: Play 2x for intro

   C5	  Eb5  E5      G5      B5
e|---------------------------------------------------------------|
B|---------------------------------------------------------------|
G|-5--5---8-8--9-9-9---12-12---4-4--4--4--4-4-4--4-4-------------|
D|-5--5---8-8--9-9-9---12-12---4-4--4--4--4-4-4--4-4-------------|
A|-3--3---6-6--7-7-7---10-10---2-2--2--2--2-2-2--2-2-------------|
E|---------------------------------------------------------------|

Verse 1: Play Riff 1. throughout

haven?t had so much fun since my daddy
took the V 8 away
light a spark in the dark take a mark
it?s resurrection day
it?s a breeze timorese apec speak
wear batik seen not heard

Bridge: Guitar 2. Only

Riff 2: Play throughout bridge

e|------------------------------------------------------------|
B|------------------------------------------------------------|
G|------0-------------0-------------0--------------0--4-------|
D|-2-------4-------------4-------------4------0---------------|
A|---------------3--------------------------------------------|
E|-----------------------------3------------------------------|

well we do the same things that we always do
nothing changes but the colour changes you
I don?t come to bury you
the trouble is with you

Chorus: Note that Gt. 2s Chords are relative to capo therefore both guitars
	are in the same key

Gt.1:  G#m      E	  B	   F#
Gt.2:  Em       C         G        D
We got too much sunshine (too much sunshine)

Gt.1:  G#m      E	  B	   F#
Gt.2:  Em       C         G        D
We got too much sunshine (too much sunshine)

Gt.1:  G#m      E	  B	   F#
Gt.2:  Em       C         G        D
We got too much sunshine (too much sunshine)


Verse 2: Play Riff 1. throughout

have you ever built your house
in a town called pissitaway
you were dreaming of marinas
with a crown you were king for a day
saw a man with a reason any season
got a bird in his hand


Bridge:Guitar 2. Play Riff 2. Throughout

 Guitar 1. Plays this fill during bridge
e|------------------------------------------------------------|
B|------------------------------------------------------------|
G|-----1---3---4-------------------1--------3---4-------------|
D|-4---------------------------4-------1----------------------|
A|------------------------------------------------------------|
E|------------------------------------------------------------|
well we do the same things that we always do
nothing changes but the channel changes view
well the trouble with you has been
                                 F#
you can sleep but you can?t dream

CHORUS

Solo: Played on Guitar 1.

e|-3--2--0-----------0--2----3--2--0-----------2--3-------------|
B|----------3-0---3-------------------3-------------------------|
G|-------------4-------------------------4--2-------------------|
D|--------------------------------------------------------------|
A|--------------------------------------------------------------|
E|--------------------------------------------------------------|

e|-3--2--0-----------0--2----3--2--0-----------2--3-------------|
B|----------3-0---3-------------------3-------------------------|
G|-------------4-------------------------4--2-------------------|
D|--------------------------------------------------------------|
A|--------------------------------------------------------------|
E|--------------------------------------------------------------|

e|-3--2--0-----------0--2----3--2--0-----------2--3-------------|
B|----------3-0---3-------------------3-------------------------|
G|-------------4-------------------------4--2-------------------|
D|--------------------------------------------------------------|
A|--------------------------------------------------------------|
E|--------------------------------------------------------------|

e|-3--2--0-----------0--2----3--2--0----------------------------|
B|----------3-0---3-------------------3-------------------------|
G|-------------4-------------------------4--2-------------------|
D|---------------------------------------------2h4--4-----------|
A|--------------------------------------------------------------|
E|--------------------------------------------------------------|

e|-0-8-0-7-0-8-0-7-0-8-0-7-8-7-0-8-0-7-0-8-0-7-0-8-0-7-0--------|
B|--------------------------------------------------------------|
G|--------------------------------------------------------------|
D|--------------------------------------------------------------|
A|--------------------------------------------------------------|
E|--------------------------------------------------------------|

e|-8-7-6-7---8-7-6-7---8--6-7---0-8--6-7------8-8---8/10-10-----|
B|---------8---------8--------8----------8--8-8-8-8-8/10-10-----|
G|--------------------------------------------------------------|
D|--------------------------------------------------------------|
A|--------------------------------------------------------------|
E|--------------------------------------------------------------|

   too much sunshine         (too much sunshine)
e|-3--2--0-----------0--2----3--2--0----------------------------|
B|----------3-0---3-------------------3-------------------------|
G|-------------4-------------------------4--2-------------------|
D|---------------------------------------------2h4--5-----------|
A|--------------------------------------------------------------|
E|--------------------------------------------------------------|

  too much sunshine         (too much sunshine)
e|-3--2--0-----------0--2---------------------------------------|
B|----------3-0---3---------------------------------------------|
G|-------------4------------------------------------------------|
D|---------------------------5--4--2--0-------------------------|
A|---------------------------------------2--0-------------------|
E|---------------------------------------------2--3-------------|

CHORUS X2 till end

Back to GUITAR TABS
HOME


Текст, аккорды и табулатура для песни "Too Much Sunshine", исполняет "Midnight Oil".
Используемые в песне аккорды можно найти в разделе Как брать аккорды. Аккорды для шестиструнной гитары. Другие песни можно найти на нашем сайте, воспользовавшись алфавитным указателем вверху страницы.


 
Ошибка в тексте? Выделите ошибку и нажмите Ctrl+Enter