1) harm****               *****              *****           ********
e-----12-----3--3h5p3p2---12-----2-2-3-0-----12----         -12------
B--------12-----0------------12----0------------12- 3 times ----12---
G--------------------------------------------------         -------12
D--------------------------------------------------         ---------
A--------------------------------------------------         ---------
E--0--------------------0------------------0-------         ---------
opening


2)
G--------0-------0-------0----------------
D------4-------5-------7-------0-----0---0
A----2-------3-------5-------4-----2------
E--0-------0-------0-------5-----3-----5--
verse riff (clean)
Welcome to where time stands still


3)
G--------0-------0-------0----------------
D------4-------5-------7-------0---------2
A----2-------3-------5-------4----2--4-2-2
E--0-------0-------0-------5------3--5-3-0
pm........................................
Sleep my friend (distorted)


4)                       1st/3rd time       2nd
D-------------5-4-5-4- -0h2p0------------ ----------------------
A--2----5-4---3-2-3-2- -------3-2-0------ -2-2-2-2-2-3-2-0------
E--0--X-3-2-X--------- -------------3-2-0 -----------------3-2-1
Sanitarium


5)
D------------------0-1-0-1-----------------------0-1-0-1-0-1-0-2
A------------------0-1-0-1-----------------------0-1-0-1-0-1-0-2
E--0-0-0-0-0-0-0-0---------0-0-0-0-0-0-0-0-0-0-0----------------
pm..............................................................
Just leave me alone


6)
D---------2---------7---------3---------5-------4     -4-2------
A---------2---------5---------3---------3-2-2-2-2 end -2-0-5-4-2
E--0-0--0-0--0-0--0----0-0--0-1--0-0--0----------     -----3-2-0
pm......    .....    .....    .....   .
Fear of living on

----------------------------------------------
solo1:

-------------------|--------10-s12--15-s17--17---------|
-------------------|10-s12-----------------------------|
|--------11--12--9---------12--------------------------|
|----9-------------------------------------------------|
|7-----------------------------------------------------|
-------------------------------------------|

|--15--15--12--12s14---12^-r---|---12---------------__3___---------|
-------------------|15-----15--13--13---121312---------|
----------------------------------14--|12-s11----------|
--------------------------------------|--------12------|
---------------------------------------14--|
-------------------------------------------|

-------------------|----19-----19-------------17--|171514----------|
-------------------|--17---------17---------------|------171514----|
|12s14-------------------------|16-------------16-s14-14-------1614|
-------------------------------------------|
-------------------------------------------|
-------------------------------------------|

                               __3___
-----------------12|101210----------------5-------|----3-----------|
---------------13--|------13--12-----------------------|
|12^-----r---------------14-----------6-----------|4-----------6---|
-----------14--------/7----------/5---|-------/7-------|
-------------------------------------------|
-------------------------------------------|

solo2:

 ----------------------------------------------------------------|
 --------------------------------------------------------10------|
 ----------------------------------------7---7---9--s11----------|
 ------------------------7---7--s9-------------------------------|
 --------5---5---7--s9-------------------------------------------|
/7---------------------------------------------------------------|


                22      22
--------15--17--19------19------19------------------------------|
17--19--------------------------17------------------------------|
----------------------------------------------------------------|
----------------------------------------------------------------|
----------------------------------------------------------------|
----------------------------------------------------------------|


                     
17-h19-p17------15------17-h19--17--------------17--19p17 17------|
19-h20-p19------17------19-h20--19------19------19--20p19 17------|
----------------------------------------19------------ -- --------|
------------------------------------------------------ -- --------|
------------------------------------------------------ -- --------|
------------------------------------------------------ -- --------|


15------------------------------|
--------------------------------|
16------------------------------|
--------------------------------|
--------------------------------|
--------------------------------|


14^---------------------r-------------------------------14--15--|
15^---------------------r-------15------------------------------|
----------------------------------------------------------------|
----------------------------------------------------------------|
----------------------------------------------------------------|
----------------------------------------------------------------|
                ___3____
17--15--14--15--14h15p14  ----14---------------- -- --------------------|
--------------------      17------17--17--14--15p14 16--14--------------|
--------------------      ---------------------- -- --------16--14-s12--|
--------------------      ---------------------- -- --------------------|
--------------------      ---------------------- -- --------------------|
--------------------      ---------------------- -- --------------------|

--------------------------------|
--------------------------------|
14-p12------12------------------|
--------16------16--14--12------|
----------------------------16--|
--------------------------------|

--------------------------------------------------------17------|
------------------------------------------------17-s15------15-s|
----------------------------------------------------------------|
12-h14----------------------------------------------------------|
----------------------------------------------------------------|
----------------------------------------------------------------|

----15----------14----------12----------10----------7-----------|
14------14-s12------12-s10------10-s8-------8-s-7-------7-------|
------------------------------------------------------------7---|
----------------------------------------------------------------|
----------------------------------------------------------------|
----------------------------------------------------------------|

--------------------------------|
--------------------------------|
----7---9-----9s11------9-------|
9-------------~-----------------|
--------------------------------|
--------------------------------|

----------------------------------------------------------------|
----------------------------------------------------------------|
9---------------------------------------9---9---9-------9-------|
----------------------------------------------------------------|
----------------------------------------------------------------|
----------------------------------------------------------------|

------------------------------------------------5---------------|
----------------------------------------------------------------|
9-------7-------------------------------6-----------------------|
----------------5--------------/7----------------------/5-------|
----------------------------------------------------------------|
----------------------------------------------------------------|

--------3-----------------------|
--------------------------------|
4-----------------------6-------|
---------------/7---------------|
--------------------------------|
--------------------------------|

End solo


----------------------------------------------------------------|
----------------------------------------------------------------|
12--12--12--12--12--12--12--12--12--12--12--12--12--12--12--12--|
----------------------------------------------------------------|
----------------------------------------------------------------|
----------------------------------------------------------------|

----------------------------------------------------------------|
----------------------------------------------------------------|
16--12--12--12--12--12--12--12--12--12--12--12--12--12--12--12--|
----------------------------------------------------------------|
----------------------------------------------------------------|
----------------------------------------------------------------|

------------------------------------------------------------12--|
--------------------------------13--12--12--12--15--12--12------|
14--12--12--12--16--12--12--12----------------------------------|
----------------------------------------------------------------|
----------------------------------------------------------------|
----------------------------------------------------------------|

                ______3_______
13--12--12--12--15----12----12--17---------------------12------|
-----------------------------------------------/12--------------|
----------------------------------------------------------------|
----------------------------------------------------------------|
----------------------------------------------------------------|
----------------------------------------------------------------|

17-p15-p12--------------12------17-p15-p12----------------------|
----------------17-p15--------------------------17-p15-p12------|
----------------------------------------------------------------|
----------------------------------------------------------------|
----------------------------------------------------------------|
----------------------------------------------------------------|

17-p15-p12--------------12------17-p15-p12--------------12------|
----------------17-p15--------------------------15-p12----------|
----------------------------------------------------------------|
----------------------------------------------------------------|
----------------------------------------------------------------|
----------------------------------------------------------------|

                                                ______3_______
17^---------------------r-------^---------------------17----15--|
------------------------------------------------17--------------|
----------------------------------------------------------------|
----------------------------------------------------------------|
----------------------------------------------------------------|
----------------------------------------------------------------|

14--------------14----------------------------------------------|
--------15--------------15--------------------------------------|
------------------------------------------------2---------------|
--------------------------------------------------------4-------|
----------------------------------------------------------------|
----------------------------------------------------------------|

----------------------------------------------------------------|
----------------------------------------------------------------|
----------------4-------2---------------2-------4---2-----------|
4^------------------------------4-----------------------4-------|
----------------------------------------------------------------|
----------------------------------------------------------------|



----------------------------------------------------------------|
----------------------------------------------------------------|
--------------------------------------------------------4-------|
3-------2---------------2^--------------------------------------|
----------------5-----------------------------------------------|
----------------------------------------------------------------|

----------------------------------------------------------------|
----------------5-----------------------5---------------5-------|
7^----------------------7^----------------------7^--------------|
----------------------------------------------------------------|
----------------------------------------------------------------|
----------------------------------------------------------------|

----------------------------------------------------------------|
--------5---------------5-------------------------------12------|
7^--------------7^--------------7--------------14--------------|
----------------------------------------------------------------|
----------------------------------------------------------------|
----------------------------------------------------------------|

____________3__________         ___________3___________
--------------------------------15^--------15--------14---------|
15^--------15--------12-----------------------------------------|
----------------------------------------------------------------|
----------------------------------------------------------------|
----------------------------------------------------------------|
----------------------------------------------------------------|

____________3__________
12-------------------12-----------------------------------------|
-----------15-------------------15^---------------------17--17--|
----------------------------------------------------------------|
----------------------------------------------------------------|
----------------------------------------------------------------|
----------------------------------------------------------------|

15----------15--17--15------15--19--17-(15)--s--21------19--22--|
----17--18--------------19--------------------------------------|
----------------------------------------------------------------|
----------------------------------------------------------------|
----------------------------------------------------------------|
----------------------------------------------------------------|

22--19------22--22^-------------22^-----------------------------|
--------x-------------------------------------------------------|
----------------------------------------------------------------|
----------------------------------------------------------------|
----------------------------------------------------------------|
----------------------------------------------------------------|


Текст, аккорды и табулатура для песни "Welcome Home (Sanitarium)", исполняет "Metallica".
Используемые в песне аккорды можно найти в разделе Как брать аккорды. Аккорды для шестиструнной гитары. Другие песни можно найти на нашем сайте, воспользовавшись алфавитным указателем вверху страницы.


Слушать онлайн Welcome Home (Sanitarium)


ApocalypticaWelcome Home (Sanitarium) на Яндекс.Музыке


 
Ошибка в тексте? Выделите ошибку и нажмите Ctrl+Enter