Artist:Metallica
Song:The unforgiven interlude and solo
Tabbed by: Mikhail Asanovic

All of the tabs I have found have been shoddy for the solo. So here it is in all its 
wonderful glory. I'm pretty sure that its 100%, but if anyone sees any mistakes please 
post to tell me. ENJOY!

|=The end of a phrase
H=Hammer On
P=Pull Off
/=Slide Up
=Slide down
^=Bend string
*=Dead note

Interlude:

e---------------------------|-0-0-0-0---0---------|
B---------------------------|-0-1-3-3/5-3-1-1/3---|
G---4-5-7-5-4H5P4---4-------|---------------------|
D-7---------------7---5-5/7-|---------------------|
A---------------------------|---------------------|
E---------------------------|---------------------|

e-3H5P3-2-----------------|-----------------------|
B-3H5P3-3-3H5-3P1-0H3-0---|-----------------------|
G-----------------------0-|---------------5-------|
D-------------------------|-------------5---5-5H7-|
A-------------------------|-----3H5-6-7-----------|
E-------------------------|-3H5-------------------|

e------------------7---7-----10--------12----------14----15-
B-8-7H8P7---7-8-10---8---8-8----8-8/10----10-10/12----12----
G---------9-------------------------------------------------
D-----------------------------------------------------------
A-----------------------------------------------------------
E-----------------------------------------------------------

e----------17-|
B-13-13/15-----|
G--------------|
D--------------|
A--------------|
E--------------|

Distortion:

e---------------------------------------------|
B-7^-7^---------------------------------------|
G-7^-7^-5---------5---------------------------|
D---------7-*-*-7---H7-5----------------------|
A------------------------7-5-3-5-3---------3^-|
E----------------------------------5-3-3H5----|

e--------------------------------------------8-------10----
B-------------------7---7-7H8-7H8-15^-15^-10---10-10----10-
G---5-7-5H7-7/9-7H9---9------------------------------------
D-7--------------------------------------------------------
A----------------------------------------------------------
E----------------------------------------------------------
            bend 1 whole step and hold
e-15^^^^^^-12-21/-17-17-21P17----17-17-|
B------------------------------17--------|
G----------------------------------------|
D----------------------------------------|
A----------------------------------------|
E----------------------------------------|

e---5-9-10-9-7-9----7---------------------------|
B-5--------------10---8-7---7-------------------|
G-------------------------9---9-7-5H7P5-4H5P4-2-|
D-----------------------------------------------|
A-----------------------------------------------|
E-----------------------------------------------|

e---12-----12-----12-----12-----12-----12-----12-----|
B-13--13-----13-----13-----13-----13-----13-----13---|
G-------14-----14-----14-----14-----14-----14-----14-|
D----------------------------------------------------|
A----------------------------------------------------|
E----------------------------------------------------|

e------------15^^-17-19-20-19-17-19-17H19P17-17-------------
B-15^-15^-13------------------------------------20-17-15H17-
G-----------------------------------------------------------
D-----------------------------------------------------------
A-----------------------------------------------------------
E-----------------------------------------------------------

e-15--------------------------------15-13H15P13-12--13P12--|
B----17P15-13-15^13-15^13-15^-15^13------------------------|
G----------------------------------------------------------|
D----------------------------------------------------------|
A----------------------------------------------------------|
E----------------------------------------------------------|


Текст, аккорды и табулатура для песни "Unforgiven (solo ver 2)", исполняет "Metallica".
Используемые в песне аккорды можно найти в разделе Как брать аккорды. Аккорды для шестиструнной гитары. Другие песни можно найти на нашем сайте, воспользовавшись алфавитным указателем вверху страницы.


 
Ошибка в тексте? Выделите ошибку и нажмите Ctrl+Enter