Условные обозначения:
  
    /               /-
   / - FULL BAND   /    - FULL BAND с возвратом

   / - HALF BAND    /-  - HALF BAND с возвратом

   ^ - HAMMER ON(PULL OFF)

   * - нота играется с бэндом

   ~~~ - VIBRATO

   /, - SLIDE

   Rhy.Fig. - ритмическая фигура

   (end Rhy.Fig). - конец указанной ритмической фигуры 

   w/Rhy.Fig. - играть указанную ритмическую фигуру

   Rhy.Fill - ритмическое заполнение

   (end Rhy.Fill) - конец указанного ритмического заполнения

   w/Rhy.Fill - играть указанное ритмическое заполнение

   Gtr.1(Gtr.2) - гитара 1(2)

   Guitar solo - гитарное соло   

   % - повтор предыдущего такта

   ||.
   ||  - реприза(между репризами играть 2 раза)
   ||.   

  INTRO

                                                  /---  /---
 Gtr.1                                           /     /     
-----------------|
---------||-14------------------|--14-----14*---(14)-|
---------||-11---------------------------|
---------|----------|--11*---(11)--------|
-----------------|
-----------------|
|Vocal:One,two,three
|      One,two,three
|Gtr.2                 Rhy.Fig 1
-----------------|
---------|----------|---2----------------|
---------|------2---|----------2---------|
---------||---------2-----------------2--|
---------||--0---------------------------|
-----------------|
 
  
    ~~~~~~~~~~~~~                /------              ~~~~~~~~
-----------------------------|
|--12-----------------|---------12*----(12)-|--12-----10---------|
-----------------------------|
|---9-----------------|----------9*-----(9)-|---7----------------|
-----------------------------|
-----------------------------|
|   ~~~~~~~~~~~~~                               ~~~~~~~~~~~~~
|
|
-----------------------------|
-----------------------------|
----------|--1---------------------------|
------2---|----------2----------------4--|
|----------2-----------------2--|----------4---------|
|--0----------------------------|---2----------------|
 
           /----
          /    /-
              /          ~~~~~~~~~~~~~~        S      S     S
-----------------------------|
|--------10*-----(10)-|---7-----------------|-7///10-10/12-12/14-|
-----------------------------|
-7*---(7)-|---4-----------------|-4////7--7//9--9/11-|
-----------------------------|
-----------------------------|
|                         ~~~~~~~~~~~~~~                           
|
|
--------------------|--2^3^2-------------|
----------------3---3--------|
|--2------------------|----------2-----------------2-|
|---------4-----------|---0--------------------------|
-----4-----------------------|
-----------------------------|
                                                                   

    ~~~~~~~~~~~~~~~~~~            /----             ~~~~~~~~~~~~
-----------------------------|
|--14-----------------|----------14*--(14)--|-14----12-----------|
-----------------------------|
|--11-----------------|----------11*--(11)--|--9-----------------|
-----------------------------|
-----------------------------|
|   ~~~~~~~~~~~~~~~~~~                         ~~~~~~~~~~~~~~~~~~
|
|
-----------------------------|
----------|----2-------------------------|
------2---2------------------|
|----------2----------------2--------2---|
|---0---------------------------|---------2----------|
--------------------|--0-----------------|

           /---
          /           Rhy.Fill 1
----------|----------12------------------|
|--------12*---(12)^10-------15----------|
-----------------------------|
----------|--0------------------|----------%---------|
-----------------------------|
-----------------------------|
| 
|  
|      (end Rhy.Fig.1) Rhy.Fill 1A
----------0------------------|
------------------3----------|
|--1-------------------------------------|
|---------2-----------|--0------------------|----------%---------|
-----2-----------------------|
-----------------------------|
    
    
                            (end Rhy.Fill 1)     /----      /
                                                /          /  
-----------------------------|
-----------------------------|
--------------------|--4*-----(4)--4*-(4)|
|----------%----------%---------|--0-----------------|
-----------------------------|
-----------------------------|
|
|                                                       
|                                               (end Rhy.Fill 1A)
-----------------------------|
-----------------------------|
-----------------------------|
|----------%----------%---------|--0-----2-----------|
--------------------|-----4-----2---0----|
-----------------------------|


 Guitar solo 1
 w/Rhy.Fig 1(Gtr.2)
      
   ~~~~~~~~~~~~~~~~~~~   /---       /--      ~~~~~~~~~~~~~~~~~~
-----------------------------|
-----------------------------|
|--2------------------|-4*--(4)^2---4*-(4)-----------|
--------------------|--2-----------------|
-----------------------------|
-----------------------------|

     /    /    /
    /    /    /         ~~~~~~~~~~      ~~~~~~~~~~~~
-----------------------------|
-----------------------------|
|--4*---4*---4*-(4)^2------------------2-|
----------|--4---------------4-----------|
-----------------------------|
-----------------------------|

                                                  /
     S   S   S                                   /
-----------------------------|
--------------------|---5----------------|
---------------2^4--|---4*---------------|
----------|---------2^4------------------|
|--4 / 5  4 / 5------|--2^4-------------------------|
-----------------------------|
  
      /---
     /                   ~~~~~~~~~~~~~~~~~~       S
-----------------------------|
|---5-----------------|---5-----------------|----5 / 7---------5-|
|---4*----(4)-----2---|---4-----------------|----4 / 6---------4-|
-----------------------------|
-----------------------------|
-----------------------------|

  
     w/Rhy.Fill 1 & 1A
  
-----------------------------|
|--3-------------------------------------|
|--2-------------------------------------|
-----------------------------|
-----------------------------|
-----------------------------|

  

----------||
|---2^3^5--------2----||
----------||
----------||
----------||
----------||

 1 VERSE

w/Rhy.Fig.1(Gtr.1)
Gtr.2(Accords)
A            E  F#m                  D
  Train roll on,   on down the line.Won´t you
A                 E          D
  Please take me far , far away.Yeah.
A                       E  F#m           D
  Now I feel the wind blow   outside my door. Lord I´m
A                 E        D
  I´m leaving my woman at home.Oh,yeah.



Chorus
Gtr.2  A                                         G
Gtr.1
--------------------|----3--------3----3-|
--------------------|----0--------0----0-|
|------2-----------2--|----2-------------2--|----0--------0----0-|
|------2-----------2--|----2-------------2--|----0--------0----0-|
|------0-----------0--|----0-------------0--|----2--------2----2-|
--------------------|----3--------3----3-|
                         Tues-          day´s   gone_____________ 

                          D
   
|-----3------------3--|---2----------2----2-|---2----------------|
|-----0------------0--|---3----------3----3-|---3-------3--------|
|-----0------------0--|---2----------2----2-|---2--------------2-|
|-----0------------0--|---0----------0----0-|---0----------------|
-------2---------------------|
|-----3------------3---------------------|
               with the  wind____________________________________
     
                                                A
                                       S
-----------------------------|
|----3------------3---|---3-----------------|---2----------------|
|----2------------2---|---2-----------7----|---2----------------|
|----0------------0---|---0-----------------|---2----------------|
--------------------|---0----------------|
-----------------------------|
                                 Yeah____________

                          E
                       
----------0------------------|
------------------0----------|
|--2---------2------------------|----1---------------|
|--2---------2------------------2--------|
|--0---------0-------------------------2-|
----------|---0--------------------------|
 My   ba - by´s          gone                        gone with the

 w/Rhy.Fill 1A

-0---------0---------0-------|
-------3---------3---------3-|
-----------------------------|
|----0----------------|----0----------------|----0---------------|
-----------------------------|
-----------------------------|
     wind_______________________________________


    /-/--     /-
----------||
----------||
|--4*-(4)-(4)--4*-(4)-||
----------||
----------||
----------||
         Long gone


 Guitar solo 2
 w/Rhy.Fig 1(Gtr.2)
                          /-
                         /         /--
--------------------|
--------------------|
|--2------------------|--4*--(4)----4*--(4)-|
--------------------|
--------------------|
--------------------|
        
    
  ~~~~~~~~~~~~~           /-----------              ~~~~~~~~~~~~
-----------------------------|
----------|---------5--------------------|
----------|--4*--------4-(4)^2--|----4---------------|
|--2----------------------------|--------4-----------|
-----------------------------|
-----------------------------|
    
    ~~~~~~~~                S S S S S S
-----------------------------|
-----------------------------|
-------2-----------------2^4-|
|---4---------4-----------------|---------2^4--------|
----------|----4/54/54/54----|--2^4---------------|
-----------------------------|


      /          /-----------------
     /          /~~~~~                            S   S ~~~~~~~~
-----------------------------|
-----------------------------|
|---4*---------4*-----|--4----------(4)^2---|----4 / 6  4-------|
-----------------------------|
-----------------------------|
-----------------------------|

                           w/Rhy.Fill 1 & 1A
          S
-----------------------------|
|--------5 / 7------5-|---3--------------------------|
|--------4 / 6------4-|---2--------------------------|
-----------------------------|
-----------------------------|
-----------------------------|

  

--------------------||
----------|----2^3^5---------2--||
--------------------||
--------------------||
--------------------||
--------------------||


2nd,3rd Verses
w/Rhy.Fig.1(Gtr.1)
Accords(Gtr.2)

Chorus
Gtr.2  A                                         G
Gtr.1
--------------------|----3-------3----3--|
--------------------|----0-------0----0--|
|------2-----------2---------2--|----0-------0----0--|
|------2-----------2---------2--|----0-------0----0--|
|------0-----------0--|-----0------------0--|----2-------2----2--|
--------------------|----3-------3----3--|
                          Tues-        day´s    gone_____________
      
                          D

|-----3------------3--|---2----------2----2-|---2----------------|
|-----0------------0--|---3----------3----3-|---3-------3--------|
|-----0------------0--|---2----------2----2-|---2--------------2-|
|-----0------------0--|---0----------0----0-|---0----------------|
-------2---------------------|
|-----3------------3---------------------|          
               with the  wind____________________________________
    
                                                  A
                                        S
-----------------------------|
|----3------------3---|---3--------------------------|
|----2------------2---|---2------------7----------2-|
|----0------------0---|---0------------------------2-|
--------------------|-----0------------0-|
-----------------------------|
                               Oh,Yeah______
   
                           G

----------|---3--------3----3---|-----3------------3-|
----------|---0--------0----0---|-----0------------0-|
|--2--------------2---|---0--------0----0---|-----0------------0-|
|--2--------------2---|---0--------0----0---|-----0------------0-|
|--0--------------0---|---2--------2----2----------2-|
----------|---3--------3----3---|-----3------------3-|
  Tues-          day´s   gone________________             with the

    D

|---2----------2----2-|---2--------------------------|
|---3----------3----3-|---3-------3---------|----3------------3--|
|---2----------2----2-|---2---------------2-|----2------------2--|
|---0----------0----0-|---0-----------------|----0------------0--|
-----------------------------|
-----------------------------|
   wind_________________________________________


                            A
                  S
-----------------------------|
|---3------------------------------------|
|---2------------7---------2---|--2---------------2-|
|---0-----------------------2---|--2---------------2-|
----------|-----0-----------0---|--0---------------0-|
-----------------------------|
            Yeah______                        Tues-          day´s

     G                                          D

|----3--------3----3--|-----3-----------3---|---2---------2----2-|
|----0--------0----0--|-----0-----------0---|---3---------3----3-|
|----0--------0----0--|-----0-----------0---|---2---------2----2-|
|----0--------0----0--|-----0-----------0---|---0---------0----0-|
|----2--------2----2--------2------------|
|----3--------3----3--|-----3-----------3------------|
    gone________________       gone with the   wind______________


                              S             S
|---2------------2-----------------------------------|
|---3-----3------3-----3-----------|--8---10/12---------10----12-|
|---2-----2------2-----2------/9-------11------------|
|---0-----0------0-----0-----------------------------|
-----------------------------------------|
-----------------------------------------|
  
    A                                           E
    ~~~~~~~~~~~~    S
---------------------0-------|
|--10-----------(10)------------------0-|
----------|----2-----------2-------------|
----------|----2-----------2-------------|
----------|----0-----------0-------------|
--------------------|---0----------------|
                          My     ba - by´s     gone 

                        w/Rhy.Fill 1A

----------|----------0-----------0-------|
------------------3--------3-|
|---1------------------------------------|
|----------2----------|----0----------------|---0----------------|
------2----------------------|
-----------------------------|
              with the   wind____________________________________

   
                            /          /
                           /          /  
-0------------------||
--------3-----------||
----------|---4*---------4*-(4)-||
|----0--------------------------||
--------------------||
--------------------||

Соло на губной гармошке
Rhy.Fig.1(Gtr.1)
Accords(Gtr.2)


Interlude

 w/Fill 1A
---------|--5--------------0-|
|---2^3---------5^2--||.---------------------|--5----------------|
---------||----2-------------------------|
---------||.---2-------------------------|
---------||----0-------------------------|
-----------------|
   
                                              2nd time substitute
                                              Fill 2

|---x--------0-------------------|--0--------0-------|
|---x--------------0-------------|--3--------------3-|
|---x-----------------|--1-------------------|--2----------------|
|---x-----------------|-------2--------------|--0----------------|
|---x------------------2-----------------|
|---x------------------------------------|
                        _________________________________________
 2nd time substitute   |1.                                       |
 Fill 3                |     S             /---------------     |
                                          /                 
|--2------0-----------|--2------------------|-----12------------||
-----3------10---12*12-(12).||
----------|------/11--------------------||
---------------------------.||
----------------------------||
----------------------------||
 __________________________________________  ____________________
|2.                                        ||3.
|                                          ||
                                              S
|-------2---0---------|--2^0-----2-----2---|---------|
------3---|--3-------3-----3--.||------10-10---10--10|
|--2------------------|--2-------2-----2---||-/11----------------|
----------|--0-------0-----0--.|---------|
-------------------|---------|
-------------------|---------|
 _____________________  ____________________
                      ||4.  
                      ||                   /--------
                        S                 /          
----------|---------|-12----------------||
|----10--10------10-.||----10--12----10-12*|-----12(12)--12--10||
|-12----------11------||/11--------11---------------||
---------.------||
----------------||
----------------||


  *Fill 2*

                                   S
-----------------|
||---------3-----------------------------|
||---------2--------------------|------5---7---7-----|
||---------0-----------------5--|--7-----------------|
|----------/7----------------|
-----------------|


--------------------||
--------------------||
|--5^7----7------7--5-----------||
----------|--7------------------||
--------------------||
--------------------||

  *Fill 3*
             /
   S        /                            S
||------5------5------------------------||
||-/5------8*-----8--5----------8-------||
|----------|-7--5-----5--7--7/9---------||
|----------|-------7--------------------||
----------------||
----------------||


  Guitar solo 3
 w/Rhy.Fig.1

     /--         /-----
    /           /                            ~~~~~~          ~~
|--12*--(12)----12*---|-(12)-------------------------|
------------10------|-10----------10--10-|
----------------11--|---------11---------|
-----------------------------|
-----------------------------|
-----------------------------|


 ~~~~~~~          ~~~~       /---
--------------------------|
|--------10------10---|-10--12*-(12)^10--12-------|
-11------------------11---|
--------------------------|
--------------------------|
--------------------------|

                                           /
           /---                          /             /----
-----------------------------------------|
|-10--12--12*-(12)^10--12-------|--10----13*-----------13*-------|
---------------11------------------------|
-----------------------------------------|
-----------------------------------------|
-----------------------------------------|

                                                 S   S
-----------------------------------------|
|-----10------10--12--10--------|-10---------(10)/(2)/5----------|
|---------11--------------11-------------------------|
-----------------------------------------|
-----------------------------------------|
-----------------------------------------|


---------------------------------------|
----------3^5--------------------------|
----------------5^7-|--------7----5----7^5---------|
----------------------------------7----|
---------------------------------------|
---------------------------------------|


-----------------------------------------|
-----------------------------------------|
--------------------|---5----------------------------|
|---5------------------7^5---------------------------|
|--------7-------------------------------------------|
-----------------------------------------|

                                   /
--------------------------------------|
--------------5-----------------------|
--------------5-----|--5*--------------------5----|
|-------5^7-----5^7-------------|---------7----5----7---------|
-7-------7----------------------------|
--------------------------------------|
    /-
   /                       S
-----------------------------------------|
--------------------|--------8-----8-----8-----8-----|
|--7*-(7)^5---7-------5----6/---|----/9-----9-----9-----9-----9--|
------7----------------------------------|
-----------------------------------------|
-----------------------------------------|

                                   S
-8--8--8--8--8--8------------------|
|--8-----8---8--8--8--8--8--8---|--/10------10------10-----|
|-----9------9--9--9--9--9--9------------------|
-----------------------------------|
-----------------------------------|
-----------------------------------|

                           /        /---------------------
                          /        /         ~~~~~~~~      
|--------8--8--------8---10*----|-10*-------10--------10-------|
----10---------------------------------|
---------------------------------------|
---------------------------------------|
---------------------------------------|
---------------------------------------|

     /-      /-      /-            /---------------------
    /       /       /             /                       
|--10*------10*------10*--------|---10*-------10-----------------|
|--10*------10*------10*--------|---10*-------10-----------------|
-----------------------------------------|
-----------------------------------------|
-----------------------------------------|
-----------------------------------------|

                                            SS
|--8--------8---10---8---10--------------------------|
|------10-----------------------|--10---(10)------10---12-------|
---------------------/11-------------11--|
-----------------------------------------|
-----------------------------------------|
-----------------------------------------|

          /------     /----
         /           /            /        /-------------------
----12---------12---|--------12-----------12------12-|
|---10--12*----------12*--------|--12*------12*---12------12-----|
-----------------------------------------|
-----------------------------------------|
-----------------------------------------|
-----------------------------------------|
                         /
 -----------------------/               S
|------12------12------12*---------------------------|
|--12------12------12--12*------|---10---------10---10-----------|
--------------------|--------/11--------------11-----|
-----------------------------------------|
-----------------------------------------|
-----------------------------------------|

                                             /
            /---                    S      /  
---------------------------------5-------|
|--10--12--12*-(12)^10--12------|--10-------------5-----------5-|
----------------11--7*-------------------|
-----------------------------------------|
-----------------------------------------|
-----------------------------------------|


                                  S
----------------------------------------|
|------8-------5----------------|-/10--------10^8------10-------|
|----------7-------5---7----------------------------|
---------------7------------------------|
----------------------------------------|
----------------------------------------|

              /         /               /-  /-------------------
             /         /               /   /   ~~~~~~~~~~~~~~~~~
|--8--------10*-------10*-------|-----10*-----(10)---------------|
-----------------------------------------|
-----------------------------------------|
-----------------------------------------|
-----------------------------------------|
-----------------------------------------|

 ------
                       /           ~~~~~~~           ~~~~~~~~
|--10---------8---10---8*-------------------------|
--------------------|--10-------10^8-----10-------|
--------------------------------------|
--------------------------------------|
--------------------------------------|
--------------------------------------|

                         /
        /               /                              S
|------8*--------------10*------|--8-----------------------------|
--10^8--------------10^8-----------------|
------------------------------97^5------|
-----------------------------------------|
-----------------------------------------|
-----------------------------------------|

                              /           /         /
                             /           /         /
--------------------|----5---------5---------5---|
--------------------|-5---------5---------5------|
|---7------5^7----7----5-----7*-|--------7*--------7*--------|
|-------7----------------------------------------|
-------------------------------------|
-------------------------------------|

     /         /         /           /         /         /
    /         /         /           /         /         /
|---------5---------5---------5-|---------5---------5---------5--|
|------5---------5---------5----|------5---------5---------5-----|
|---7*--------7*--------7*------|---7*--------7*--------7*-------|
-----------------------------------------|
-----------------------------------------|
-----------------------------------------|

    /         /         /-
   /         /         /   
|--------5---------5---------------------------------|
|-----5---------5------------------------------------|
|--7*--------7*--------7*-(7)^5-|--7^5-----5--7^5----------------|
--------------------|-------7------------7^5---------|
-----------------------------------7^6^5-|
-----------------------------------------|
             I        can´t       change_________________________

                                 S
------------------------------|
------------------------------|
------------------7-----------|
--------------5---7---7-------|
|--5^3--------------|-------3---5/7-------------------|
|--------5^3----5-------------------------|


                   /
--------------------||
--5----5*-----------||
--5----5*-----------||
|---5----7------------------7---||
--------------------||
--------------------||
    Train___       roll___  on___

  OUTRO

-----------------------------|
----------|------2-----------------------|
----------|------2--------------|--2-----------------|
----------|------2--------------|--2-----------------|
---0----------------|--2-----------------|
--------------------|--0-----------------|



----------|--2---------------------------|
----------|--3---------------------------|
|--1-----1------------|--2---------------------------|
|--2-----2------------|--0---------------------------|
|--2-----2-------------------------------|
|--0-----0-------------------------------|
        Ride    on     train________________


|-------5----8----5----------------------------------|
-----------8----5---|--5^8^5-------------------------|
--------------------|----------7--5---------5----5---|
---------------------------7-------------|
-----------------------------------------|
-----------------------------------------|

          S                    ~~~~~~~~~~~~~~~~~~~~  S
-----------------------------------|
------8------|----10---------------------------|
|---------/9----------------------------4/11---|
|---7------------------------------------------|
-----------------------------------|
-----------------------------------|
   Lord,   I     can´t       change________________________
                         /
                        /                   ~~~~~~~~~~~~~~~~~~~~~
-----------------------------------------|
|--10---12--------10---12*------|----------12--------------------|
-11--------------------------------------|
-----------------------------------------|
-----------------------------------------|
-----------------------------------------|
                  no____________


-----------0--------|----------0---------|
----------|--3-----------------------3---|
----------|--2---------------------------|
----------|--0------------------|--0-----------------|
-----------------------------|
-----------------------------|
          I    can´t   change______


|---3-----2-----0-------------------------|
|---3-----3-----3-----|------3--------2---3---5---2---|
|---2-----2-----2-----|------2------------------------|
|---0-----0-----0-----|------0------------------------|
------------------------------|
------------------------------|
                            Ride on      train________

               S
|----5------(5)---------------------------|
|----2------(2)---------------------------|
|----2------(2)---------------------------|
-------------------------------|
--------0-----------|-----0----------------|
-------------------------------|

                                                         S
|-------0-----2--------------------------------------|
|-------3-----3-----------------|----2---------------------------|
|-------2-----2-----------------|----2---------------------------|
|-------0-----0-----------------|----2-------------------/7------|
--------------------|----0---------------------------|
-----------------------------------------|

           S
---------------------------------|
---------------------------------|
--------------------|---2--------------------|
|--7------7/11------11----------|---2--------------------|
|--0------0----------0----------|---0--------------------|
---------------------------------|


-----------------------------|
-----------------------------|
----------2---------|--2-----------------|
--------------------|--2-----------------|
|---0-----------------|--0-----4------------|--0-----------------|
-----------------------------|

                     S
----------------------------||
----------------------------||
----------------------------||
|-----12---12/14---14/|/17----19--------------------||
|------0----0--0----0-|--------0--------------------||
----------------------------||

 

 Train roll on, on down the line.Won´t you
 Please take me far,far away.Yeah
 Now, I feel the wind blow outside my door.Lord, I´m
 I´m leaving my woman at home.Oh,yeah
 
 Tuesday´s gone with the wind.Yeah
 My baby´s gone,gone with the wind.Long gone.

 And I don´t know  where I´m going
 I just want to be left alone.Yeah
 When this train ends,well, I´ll try again,oh no
 I´m leaving my woman at home.

 My baby´s gone
 Tuesday´s gone with the wind.Oh,yeah
 Tuesday´s gone with the wind.Yeah
 Tuesday´s gone,gone with the wind.Yeah
 My baby´s gone with the wind

 Train roll on, 
 Train roll on, many miles from my home
 See, I´m riding my blues,babe,blues away.Yeah
 Well,Tuesday, you see,oh, she had to be free
 But somehow, I´ve got to,to carry on

 My baby´s gone
 Tuesday´s gone with the wind
 Tuesday´s gone with the wind
 Tuesday´s gone with the wind
 My baby´s gone with the wind


Текст, аккорды и табулатура для песни "Tuesdays Gone", исполняет "Metallica".
Используемые в песне аккорды можно найти в разделе Как брать аккорды. Аккорды для шестиструнной гитары. Другие песни можно найти на нашем сайте, воспользовавшись алфавитным указателем вверху страницы.


 
Ошибка в тексте? Выделите ошибку и нажмите Ctrl+Enter