-----------------------------------------------------------------------------
	              Trapped Under Ice - Metallica
-----------------------------------------------------------------------------
Tabbed by:Guns4tots
Email:[email protected]

Tuning:Standard

Here you go people, I figured this song out about 15 years ago.  I had no
intention of tabbing it until I saw the other tabs for it on here.  It isn't
perfect, but I only spent 2 hours on it.
  


  intro fig 1                        1x   intro fig 2                     4x
e|--------------------------------------|-----------------------------------|
B|--------------------------------------|-----------------------------------|
G|--------------------------9-9-9-9-9---|-----------------------------------|
D|-------0-2---------0-2----9-9-9-9-9---|-------0-2---------0-2-0h-2-3-3----|
A|-------0-2---------0-0----7-7-7-7-7---|-------0-2---------0-2-0h-2-3-3----|
E|---0-0---------0-0--------------------|---0-0---------0-0-----------------|
   pm...         ...                        ...         ...


  w/intro fig 2     2x  solo 1                          3x then next fig 1x
e|--------|-----------|-----------------------------------------------------|
B|--------|-----------|-----------------------------------------------------|
G|--------|-----------|-------------------------------------------5-4---4---|
D|-2---4--|--5--7--6--|--4-4-----------4-4-----------4-4----------5-4---4---|
A|-2---4--|--5--7--6--|--4-4-----------4-4-----------4-4----------3-2-0-2---|
E|-0---2--|--3--5--8--|--0h2-22-22-22--0h2-22-22-22--0h2-22-22-22-----------|
                             pm......      ........      ........


                                       end of solo 1
e|--------------------------------------------------------------------------|
B|--------------------------------------------------------------------------|
G|------------------------------------------------------4-4-4-4-4-----------|
D|----4--4------------4--4------------4--4--------------4-4-4-4-4-----------|
A|----4--4------------4--4------------4--4--------------2-2-2-2-2-----------|
E|----0h-2--22-22-22--0h-2--22-22-22--0h-2--22-22-22------------------------|
            pm......        ........        ........
 

  verse 1
e|--------------------------------------------------------------------------|
B|--------------------------------------------------------------------------|
G|-------------------------------------------------5-4---4------------------|
D|--4--4-----------4--4-----------4--4-------------5-4---4------------------|
A|--4--4-----------4--4-----------4--4-------------3-2-0-2------------------|
E|--0h-2-22-22-22--0h-2-22-22-22--0h-2-22-22-22-----------------------------|
         pm......       ........       ........

    I    don't     know  how to   live thru this   hell
    Wo  ken        up, Im still   locked in this   shell
    Fro  zen       soul  frozen   down  to  the    core
    Break the      ice  I can't   take    any      more...



   chorus
e|--------------------------------------------------------------------------|
B|--------------------------------------------------------------------------|
G|--------------------------------------------------------------------------|
D|--6---7------6----7-------2----------6----7-----6----7-----------7--------|
A|--6---7------6----7-------2----------6----7-----6----7-----------7--------|
E|--4---5------4----5----0--0----------4----5-----4----5----0--0---5--------|
                         pm                                 ....
    freezing   cant move at all        screaming  cant hear my call


e|--------------------------------------------------------------------------|
B|--------------------------------------------------------------------------|
G|--------------------------------------------------------------------------|
D|--7-------4---5--------4--5-------5-------6---7--------7-------8-7---7----|
A|--7-------4---5--------4--5-------5-------6---7--------7-------8-7---7----|
E|--5---0---2---3--------2--3--0-0--3----0--4---5--------5-------6-5---5----|
        pm                     ...       .      
                  I   am dying to   live    cry out  I'm trapped under ice



  ---solo 2 same rhythm fig as solo 1

  ---verse 2 same rhythm fig as verse 1
      
      Crystallized as I lay here and rest
      Eyes of glass stare directly at death
      From deep sleep I have broken away
      No one knows, no one hears what I say
  
  ---chorus

  m8 fig 1                                   m8 fig 2
e|------------------------------------------|-------------------------------|
B|------------------------------------------|--------8--8-------------------|
G|------------------------------------------|--------7--7-------------------|
D|--7-8--7--8-8--5-5--7-7--3-3-3-3-3-3-3-3-|-2-222--5--5---------3p-2------|
A|--7-8--7--8-8--5-5--7-7--3-3-3-3-3-3-3-3-|-2-222-------3p-2---------3p-2-|
E|--5-6--5--6-6--3-3--5-5--1-1-1-1-1-1-1-1-|-0-000------------5-4----------|
                              pm...................            ...      


                 end of m8 fig 2  4x                                      2x
e|----------------------------------|---------------------------------------|
B|----------------------------------|---------------------------------------|
G|--------9----7--------------------|---9-9-9----7-7-7----5-5-4-------------|
D|-2-222--9----7--8-888-888-888-88--|---9-9-9----7-7-7----5-5-4-------2-----|
A|-2-222--7----5--8-888-888-888-88--|---7-7-7----5-5-5----3-3-2-------2-----|
E|-0-000----0-----6-666-666-666-66--|-----------------------------3-2-0-----|
   pm...    .     ................                                ...
                                                                          2x
e|--------------------------------------------------------------------------|
B|--------------------------------------------------------------------------|
G|--9--9--9--------7----7---7-----------5---5---4---------------------------|
D|--9--9--9--------7----7---7-----------5---5---4-------2-------------------|
A|--7--7--7--------5----5---5-----------3---3---2-------2-------------------|
E|--------------------------------------------------3-2-0-------------------|
                                                    pm.
           Scream, from my soul   Fate, mystified         Forever more

                                                                         4x
e|------------------------------------|-------------------------------------|
B|----------8--8----------------------|-------------------------------------|
G|----------7--7----------------------|----------9----7---------------------|
D|---2-222--5--5-----------3p-2-------|---2-222--9----7--8-888-888-888-88---|
A|---2-222--------3p-2----------3p-2--|---2-222--7----5--8-888-888-888-88---|
E|---0-000-------------5-4------------|---0-000----0-----6-666-666-666-66---|
     pm...             ...                .....    .     ................

                          
e|----------------------------------------|---------------------------------|
B|----------------------------------------|---------------------------------|
G|----------------------------------------|---------------------------------|
D|-8-888-888-888-887-777-777-777-777-777--|--777-77-----------3p-2----------|
A|-8-888-888-888-887-777-777-777-777-777--|--777-77--3p-2-----------3p-2----|
E|-6-666-666-666-665-555-555-555-555-555--|--555-55-------5-4---------------|
   pm..............................................       ...


  ---into main solo same rhythm fig as solo1 & 2

  ---Verse 3

    No release from my cryonic state
    What is this? I've been stricken by fate
    Wrapped up tight, cannot move, can't break free
    Hand of doom has a tight grip on me 
   
  ---chorus 2x  then...

                       3x
e|-----------------------|--------------------------|       |---------------|
B|-----------------------|--------------------------|       |---------------|
G|-----------------------|--------------------------| verse |-4-4-4-4-4-----|
D|--7--8--7-7------------|--7--8--7--8-8--5-5--3-3--|  fig  |-4-4-4-4-4-4--|
A|--7--8--7-7------------|--7--8--7--8-8--5-5--3-3--|   3x  |-2-2-2-2-2-4--|
E|--5--6--5-5--55-55-55--|--5--6--5--6-6--3-3--5-5--|       |-----------2--|
               pm......                                       .........


| /  slide up
|   slide down
| h  hammer-on
| p  pull-off
| ~  vibrato
| +  harmonic
| x  Mute note
===============================================================================


Текст, аккорды и табулатура для песни "Trapped Under Ice", исполняет "Metallica".
Используемые в песне аккорды можно найти в разделе Как брать аккорды. Аккорды для шестиструнной гитары. Другие песни можно найти на нашем сайте, воспользовавшись алфавитным указателем вверху страницы.


Слушать онлайн Trapped Under Ice (Metallica Cover)


ImpiousTrapped Under Ice (Metallica Cover) на Яндекс.Музыке


 
Ошибка в тексте? Выделите ошибку и нажмите Ctrl+Enter