Thorn within
performed on Load
tabbed by Rafael Dylong 

   b - bend a note (with the right feeling)
  tr - trill

   INTRO
   GTR.1
eb:---|-----------------|----------------|-----------------|----------------|
Bb:---|-----------------|----------------|-----------------|----------------|
Gb:---|-----------------|----------------|-----------------|----------------|
Db:---|-----------------|----------------|-----------------|----------------|
Ab:---|------5-----57--|----------------|------5-----57--|----------------|
Eb:---|---0--3--0--35--|----------------|---0--3--0--35--|----------------|

   GTR.1
eb:-----------------|----------------|-----------------|----------------|
Bb:-----------------|----------------|-----------------|----------------|
Gb:-----------------|----------------|-----------------|----------------|
Db:-----------------|----------------|-----------------|----------------|
Ab:------5-----57--|----------------|------5-----57--|----------------|
Eb:---0--3--0--35--|----------------|---0--3--0--35--|----------------|
  :                                                                     |
  :GTR.2                                                                |
eb:-----------------|----------------|-----------------|----------------|
Bb:-----------------|----------------|-----------------|----------------|
Gb:-----------------|--7-8-7---------|-----------------|--7-8-7---------|
Db:-----------------|----------------|-----------------|----------------|
Ab:-----------------|----------------|-----------------|----------------|
Eb:-----------------|----------------|-----------------|----------------|

   GTR.1                                                              x3
eb:-----------------|----------------|-----------------|----------------|
Bb:-----------------|----------------|-----------------|----------------|
Gb:-----------------|----------------|-----------------|----------------|
Db:-----------------|----------------|-----------------|----------------|
Ab:------5-----57--|----------------|------5-----57--|----------------|
Eb:---0--3--0--35--|----------------|---0--3--0--35--|----------------|
  :                                                                     |
  :GTR.2                                                                |
eb:-----------------|----------------|-----------------|----------------|
Bb:-----------------|----------------|-----------------|----------------|
Gb:-----------------|--7-8-7--5--2---|-----------------|--7-8-7--5--2---|
Db:-----------------|----------------|-----------------|----------------|
Ab:-----------------|----------------|-----------------|----------------|
Eb:-----------------|----------------|-----------------|----------------|

eb:---------------|------------|------------|------------|------------|
Bb:---------------|------------|------------|------------|------------|
Gb:---------------|------------|------------|------------|------------|
Db:---------------|------------|------------|------------|------------|
Ab:---------5-----|-----4------|-----3------|-----2------|-----1------|
Eb:------0--3--0--|--2---------|--2---------|--2---------|--2---------|

eb:------------|---------------------|----------------|
Bb:------------|---------------------|----------------|
Gb:------------|---------------------|----------------|
Db:------------|---------------------|----------------|
Ab:-----0------|-------4--4--4---4---|--5-------4-----|
Eb:--2---------|--0--02--2--2-0-2-0-|--3-------2--0--|

eb:-------------|------------|------------|-------------|------------|
Bb:-------------|------------|------------|-------------|------------|
Gb:-------------|------------|------------|-------------|------------|
Db:-------------|------------|------------|-------------|------------|
Ab:-------4-----|-----3------|-----2------|------1------|-----0------|
Eb:--0-2--------|--2---------|--2---------|---2---------|--2---------|

eb:---------------------|----------------|
Bb:---------------------|----------------|
Gb:---------------------|----------------|
Db:---------------------|----------------|
Ab:-------4--4--4---4---|--5-------4-----|
Eb:--0--02--2--2-0-2-0-|--3-------2--0--|

eb:-------------|------------|------------|-------------|------------|
Bb:-------------|------------|------------|-------------|------------|
Gb:-------------|------------|------------|-------------|------------|
Db:-------------|------------|------------|-------------|------------|
Ab:-------4-----|-----3------|-----2------|------1------|-----0------|
Eb:--0-2--------|--2---------|--2---------|---2---------|--2---------|

eb:---------------------|----------------|
Bb:---------------------|----------------|
Gb:---------------------|----------------|
Db:---------------------|----------------|
Ab:-------4--4--4---4---|--5-------4-----|
Eb:--0--02--2--2-0-2-0-|--3-------2--0--|

eb:-------------|------------|------------|-------------|------------|
Bb:-------------|------------|------------|-------------|------------|
Gb:-------------|------------|------------|-------------|------------|
Db:-------------|------------|------------|-------------|------------|
Ab:-------4-----|-----3------|-----2------|-------------|------------|
Eb:--0-2--------|--2---------|--2---------|-------------|------------|

eb:------------|------------|-------------|------------|-------------|
Bb:------------|------------|-------------|------------|-------------|
Gb:------------|------------|-------------|------------|-------------|
Db:----2-------|------------|-------------|------------|-------------|
Ab:----2-------|------------|-------------|------------|-------------|
Eb:----0-------|------------|-------------|------------|-------------|

  VERSE1
  CLEAN GTR.1&2
eb:---------------|-------------|----------------|------------|-------------|
Bb:---------------|-------------|----------------|------------|-------------|
Gb:------2-2------|-------------|--02----24--|------------|--454---0--|
Db:----2---2------|-------------|--02----24--|------------|--454---0--|
Ab:--0------------|-------------|----------------|------------|-------------|
Eb:---------------|-------------|----------------|------------|-------------|

eb:------------|-----------|------------|------------|------------|
Bb:------------|-----------|------------|------------|------------|
Gb:------------|-----------|------------|--4----4----|------------|
Db:------------|--4-4------|------------|--4--4---4--|------------|
Ab:------------|--4-4------|------------|------------|------------|
Eb:------------|-----------|------------|------------|------------|

                DIST.GTR.1&2
eb:------------|----------------|--------------|----------------|
Bb:------------|----------------|--------------|----------------|
Gb:------------|----------------|--------------|----------------|
Db:--4---------|----------------|--------------|----------------|
Ab:--4---------|-----5-----57--|--------------|--5--7--5--79--|
Eb:------------|--0--3--0--35--|--------------|--3--5--3--57--|

eb:-------------|---------------|-------------|-------------|------------|
Bb:-------------|---------------|-------------|-------------|------------|
Gb:-------------|---------------|-------------|-------------|------------|
Db:-------------|---------------|-------------|-------------|------------|
Ab:-------------|-9-10--9--75--|-------------|--4----------|------------|
Eb:-------------|-7--8--7--53--|-------------|--2----------|------------|

eb:-------------|------------|--------------|
Bb:-------------|------------|--------------|
Gb:-------------|------------|--------------|
Db:--4----------|------------|--2-----------|
Ab:--2----------|------------|--0-----------|
Eb:-------------|------------|--------0-2-0-|

   REFRAIN                                                             |
eb:-------------|------------|------------|-------------|------------| |
Bb:-------------|------------|------------|-------------|------------| |
Gb:-------------|------------|------------|-------------|------------| |
Db:-------------|------------|------------|-------------|------------| |
Ab:-------4-----|-----3------|-----2------|------1------|-----0------| |
Eb:--0-2--------|--2---------|--2---------|---2---------|--2---------| |
                                                                       | 4x
eb:---------------------|----------------|                             |
Bb:---------------------|----------------|                             |
Gb:---------------------|----------------|                             |
Db:---------------------|----------------|                             |
Ab:-------4--4--4---4---|--5-------4-----|                             |
Eb:--0--02--2--2-0-2-0-|--3-------2--0--|                             |

eb:------------|--------------|--------------|-------------|--------------|
Bb:------------|--------------|--------------|-------------|--------------|
Gb:------------|--------------|--------------|-------------|--------------|
Db:------------|--------------|--------------|-------------|--------------|
Ab:---5---5-5--|--5-5----5-5--|--5-5----5-5--|--57--------|--------------|
Eb:---3---3-3--|--3-3----3-3--|--3-3----3-3--|--35--------|--------------|

eb:-----------------|----------------|-----------------|----------------|
Bb:-----------------|----------------|-----------------|----------------|
Gb:-----------------|----------------|-----------------|----------------|
Db:-----------------|----------------|-----------------|----------------|
Ab:------5-----57--|----------------|------5-------2--|--1--0----------|
Eb:---0--3--0--35--|----------------|---0--3--0----0--|----------------|

eb:--0------------|----------------|
Bb:--0------------|----------------|
Gb:---------------|----------------|
Db:---------------|----------------|
Ab:---------------|----------------|
Eb:---------------|----------------|

   VERSE2
   CLEAN GTR.1&2
eb:---------------|-------------|----------------|------------|-------------|
Bb:---------------|-------------|----------------|------------|-------------|
Gb:------2-2------|-------------|--02----24--|------------|--454---0--|
Db:----2---2------|-------------|--02----24--|------------|--454---0--|
Ab:--0------------|-------------|----------------|------------|-------------|
Eb:---------------|-------------|----------------|------------|-------------|

eb:------------|-----------|------------|------------|------------|
Bb:------------|-----------|------------|------------|------------|
Gb:------------|-----------|------------|--4----4----|------------|
Db:------------|--4-4------|------------|--4--4---4--|------------|
Ab:------------|--4-4------|------------|------------|------------|
Eb:------------|-----------|------------|------------|------------|

                DIST.GTR.1&2
eb:------------|----------------|--------------|----------------|
Bb:------------|----------------|--------------|----------------|
Gb:------------|----------------|--------------|----------------|
Db:--4---------|----------------|--------------|----------------|
Ab:--4---------|-----5-----57--|--------------|--5--7--5--79--|
Eb:------------|--0--3--0--35--|--------------|--3--5--3--57--|

eb:-------------|---------------|-------------|-------------|------------|
Bb:-------------|---------------|-------------|-------------|------------|
Gb:-------------|---------------|-------------|-------------|------------|
Db:-------------|---------------|-------------|-------------|------------|
Ab:-------------|-9-10--9--75--|-------------|--4----------|------------|
Eb:-------------|-7--8--7--53--|-------------|--2----------|------------|

eb:-------------|------------|--------------|
Bb:-------------|------------|--------------|
Gb:-------------|------------|--------------|
Db:--4----------|------------|--2-----------|
Ab:--2----------|------------|--0-----------|
Eb:-------------|------------|--------0-2-0-|

   REFRAIN                                                             |
eb:-------------|------------|------------|-------------|------------| |
Bb:-------------|------------|------------|-------------|------------| |
Gb:-------------|------------|------------|-------------|------------| |
Db:-------------|------------|------------|-------------|------------| |
Ab:-------4-----|-----3------|-----2------|------1------|-----0------| |
Eb:--0-2--------|--2---------|--2---------|---2---------|--2---------| | 4x
                                                                       |
eb:---------------------|----------------|                             |
Bb:---------------------|----------------|                             |
Gb:---------------------|----------------|                             |
Db:---------------------|----------------|                             |
Ab:-------4--4--4---4---|--5-------4-----|                             |
Eb:--0--02--2--2-0-2-0-|--3-------2--0--|                             |

eb:------------|--------------|--------------|-------------|--------------|
Bb:------------|--------------|--------------|-------------|--------------|
Gb:------------|--------------|--------------|-------------|--------------|
Db:------------|--------------|--------------|-------------|--------------|
Ab:---5---5-5--|--5-5----5-5--|--5-5----5-5--|--57--------|--------------|
Eb:---3---3-3--|--3-3----3-3--|--3-3----3-3--|--35--------|--------------|

eb:-----------------|----------------|-----------------|----------------|
Bb:-----------------|----------------|-----------------|----------------|
Gb:-----------------|----------------|-----------------|----------------|
Db:-----------------|----------------|-----------------|----------------|
Ab:------5-----57--|----------------|------5-----57--|----------------|
Eb:---0--3--0--35--|----------------|---0--3--0--35--|----------------|

eb:------------|--------------|--------------|------------|--------------|
Bb:------------|--------------|--------------|------------|--------------|
Gb:------------|--------------|--------------|------------|--------------|
Db:------------|--------------|--------------|------------|--------------|
Ab:---5---5-5--|--5-5----5-5--|--5-5----5-5--|---5---5-5--|--5-5----5-5--|
Eb:---3---3-3--|--3-3----3-3--|--3-3----3-3--|---3---3-3--|--3-3----3-3--|

eb:------------|--------------|--------------|-------------|--------------|
Bb:------------|--------------|--------------|-------------|--------------|
Gb:------------|--------------|--------------|-------------|--------------|
Db:------------|--------------|--------------|-------------|--------------|
Ab:---5---5-5--|--5-5----5-5--|--5-5----5-5--|--57--------|--------------|
Eb:---3---3-3--|--3-3----3-3--|--3-3----3-3--|--35--------|--------------|

   SOLO
   GTR.1
eb:------------------------------------|-------------------------------|
Bb:---10b------------------------------|--10b----------------7---7tr---|
Gb:----9b---9tr-------------------5--7-|---9b---9tr7tr-----7-----------|
Db:------------10tr-7tr-----5--7-------|-----------------9-------------|
Ab:------------------------------------|-------------------------------|
Eb:------------------------------------|-------------------------------|
  :                                                                    |
  :GTR.2                                                               |
eb:------------------------------------|-------------------------------|
Bb:------------------------------------|-------------------------------|
Gb:------------------------------------|-------------------------------|
Db:------------------------------------|-------------------------------|
Ab:-57--------------------------------|-79---------------------------|
Eb:-35--------------------------------|-57---------------------------|

   GTR.1
eb:---------------------------------------------|
Bb:------------7tr--787-----------------------|
Gb:-------------------------9---7--6----4--3tr--|
Db:---------------------------------------------|
Ab:---------------------------------------------|
Eb:---------------------------------------------|
  :                                             |
  :GTR.2                                        |
eb:---------------------------------------------|
Bb:---------------------------------------------|
Gb:---------------------------------------------|
Db:---------------------------------------------|
Ab:----------75--------------------------------|
Eb:----------53--------------------------------|

   GTR.1
eb:-----------------------------------------------|
Bb:-----------------------------------------------|
Gb:---3-3---4--6-7--4tr-----4-4---6--7-9--6tr-----|
Db:-----------------------------------------------|
Ab:-----------------------------------------------|
Eb:-----------------------------------------------|
  :                                               |
  :GTR.2                                          |
eb:-----------------------------------------------|
Bb:-----------------------------------------------|
Gb:-----------------------------------------------|
Db:-------------------------4---------------------|
Ab:-54---------------------2-------------4-------|
Eb:-32-----------------------------------2-------|

   VERSE3
   DIST.GTR.1&2
eb:----------------|--------------|----------------|
Bb:----------------|--------------|----------------|
Gb:----------------|--------------|----------------|
Db:----------------|--------------|----------------|
Ab:-----5-----57--|--------------|--5--7--5--79--|
Eb:--0--3--0--35--|--------------|--3--5--3--57--|

eb:-------------|---------------|-------------|-------------|------------|
Bb:-------------|---------------|-------------|-------------|------------|
Gb:-------------|---------------|-------------|-------------|------------|
Db:-------------|---------------|-------------|-------------|------------|
Ab:-------------|-9-10--9--75--|-------------|--4----------|------------|
Eb:-------------|-7--8--7--53--|-------------|--2----------|------------|

eb:-------------|------------|--------------|
Bb:-------------|------------|--------------|
Gb:-------------|------------|--------------|
Db:--4----------|------------|--2-----------|
Ab:--2----------|------------|--0-----------|
Eb:-------------|------------|--------0-2-0-|

   REFRAIN                                                             |
eb:-------------|------------|------------|-------------|------------| |
Bb:-------------|------------|------------|-------------|------------| |
Gb:-------------|------------|------------|-------------|------------| |
Db:-------------|------------|------------|-------------|------------| |
Ab:-------4-----|-----3------|-----2------|------1------|-----0------| |
Eb:--0-2--------|--2---------|--2---------|---2---------|--2---------| | 4x
                                                                       |
eb:---------------------|----------------|                             |
Bb:---------------------|----------------|                             |
Gb:---------------------|----------------|                             |
Db:---------------------|----------------|                             |
Ab:-------4--4--4---4---|--5-------4-----|                             |
Eb:--0--02--2--2-0-2-0-|--3-------2--0--|                             |

eb:------------|--------------|--------------|------------|--------------|
Bb:------------|--------------|--------------|------------|--------------|
Gb:------------|--------------|--------------|------------|--------------|
Db:------------|--------------|--------------|------------|--------------|
Ab:---5---5-5--|--5-5----5-5--|--5-5----5-5--|---5---5-5--|--5-5----5-5--|
Eb:---3---3-3--|--3-3----3-3--|--3-3----3-3--|---3---3-3--|--3-3----3-3--|

   GTR.2
eb:-------------|------------|------------|----------------------| |
Bb:-------------|------------|------------|----------------------| |
Gb:-------------|------------|------------|----------------------| |
Db:-------------|------------|------------|----------------------| |
Ab:-------4-----|-----3------|-----2------|-----0--2--3--2--0--2-| |
Eb:--0-2--------|--2---------|--2---------|--2-------------------| |
  :                                                              | |
  :GTR.1                                                         | |
eb:-------------|------------|------------|----------------------| |
Bb:-------------|------------|------------|----------------------| |
Gb:-------------|------------|------------|----------------------| |
Db:-------------|------------|------------|----------------------| |
Ab:------16-----|----15------|----14------|----12-14-15-14-12-14-| |
Eb:---14--------|-14---------|-14---------|-14-------------------| |

   GTR.2                                                           | 
eb:-------------|------------|------------|-------------|          |
Bb:-------------|------------|------------|-------------|          |
Gb:-------------|------------|------------|-------------|          |
Db:-------------|------------|------------|-------------|          |
Ab:-------4-----|-----3------|-----2------|-----1-------|          |
Eb:--0-2--------|--2---------|--2---------|--2----------|          |
  :                                                     |          | 6x
  :GTR.1                                                |          |
eb:-------------|------------|------------|-------------|          |
Bb:-------------|------------|------------|-------------|          |
Gb:-------------|------------|------------|-------------|          |
Db:-------------|------------|------------|-------------|          |
Ab:------16-----|----15------|----14------|-------------|          |
Eb:---14--------|-14---------|-14---------|-------------|          |

   GTR.1&2
eb:-------------||
Bb:-------------||
Gb:-------------||
Db:--4----------||
Ab:--2--4-------||
Eb:-----2-------||.

======


Thorn within
performed on Load
tabbed by ????

Intro
Tempo=116
              Rhy Fig 1                          end Rhy Fig 1  
|------------|--------------------|---------------------------|
|------------|-*------------------|-------------------------*-|
|------------|--------------------|---------------------------|
|------------|-----sl-------------|---------------------------|
|------5-----|-*--5/-7------------|--(7)--------------5-----*-|
|---0--3--0--|----3/-5------------|--(5)-----------0--3--0----|
         PM                                             PM

 w/ Rhy Fig 1 
 Rhy Fig 1A                               end Rhy Fig 1A
|---------------------------|---------------------------|
|-*-------------------------|-------------------------*-|
|--------------7----8----7--|--(7)----------------------|
|-----sl-------5----5----5--|--(5)----------------------|
|-*--5/-7-------------------|-------------------5-----*-|
|----3/-5-------------------|----------------0--3--0----|
                                                  PM

 w/ Rhy Figs 1 & 1A
 Rhy Fig 1B                                end Rhy Fig 1B
|---------------------------|----------------------------|
|-*-------------------------|--------------------------*-|
|--------------7----8----7--|--(7)--5--------------------|
|-----sl-------5----5----5--|--(5)--5----7---------------|
|-*--5/-7-------------------|------------7-------5-----*-|
|----3/-5-------------------|-----------------0--3--0----|

                                                                          3 times
 Riff A                                                                end Riff A
|--------------------------|--------------------------|--------------------------|
|-*------------------------|--------------------------|------------------------*-|
|--------------------------|--------------------------|--------------------------|
|--------------------------|--------------------------|--------------------------|
|-*----4~~-----3~~-----2~~-|-(2)-----1~~-----0--------|-4--4--4-4----5---4-----*-|
|---2-------2-------2------|------2-------2-------2-0-|-2--2--2-2-0--3---2--0----|
                                                 PM-------------------|

|------------------------|--------------------|------------------------|
|------------------------|--------------------|------------------------|
|------------------------|--------------------|--4----------3-------2--|
|------------------------|--------------------|------------------------|
|-----4~~-----3~~-----2--|--(2)---------------|--2----------1-------0--|
|--2-------2-------2-----|---------------0-0--|--0---------------------|

|------------------------|--------------------|------------------------|
|------------------------|--------------------|------------------------|
|--(2)-------------------|--(2)---------------|--(2)-------------------|
|--(-)-------------------|--(-)---------------|--(-)-------------------|
|--(0)-------------------|--(0)---------------|--(0)-------------------|
|------------------------|--------------------|------------------------|

 Verse
 (let ring) clean w/ chorus
|---------------0--------|---------------------------|--------------------|
|-*------------------0---|--(0)----------------------|--------------------|
|------------------------|---------------------------|--2-h-4-------------|
|---------2--------------|----------------------0----|--2-h-4-------------|
|-*--0-------------------|-------------------3-------|--------------------|
|------------------------|---------------------------|--------------------|
          Forgive...                                         for...  

|------------2---(2)/--3---2----|--0-------0------------0--|----0------------|
|-------------------------------|--0----0---------------2--|----2------------|
|--(4)---X---4---(4)/--5---4----|--4--------------------3--|----3------------|
|--(4)---X----------------------|--5--------------------4--|----4------------|
|-------------------------------|--------------------------|-----------------|
|-------------------------------|--------------------------|-----------------|
                                       Find...

                                          Rhy Fig 2A
|-------------2-----|--------------------|------------0---------|
|-------------------|--2-----------------|-----------------0----|
|-------4-----------|--3-----------------|-------2--------------|
|--4----------------|--4-----------------|--2-------------------|
|-------------------|--------------------|----------------------|
|-------------------|--------------------|----------------------|
|       I feel...
|
|                                         Rhy Fig 2
|-------------------|--------------------|----------------------|
|-------------------|--------------------|----------------------|
|-------------------|--------------------|----------------------|
|-------------------|--------------------|----------------------|
|-------------------|--------------5-----|--5/-7----------------|
|-------------------|-----------0--3--0--|--3/-5----------------|

|----------------------|--------------------|---------------2--2/-3--2--|
|----------------------|--------------------|---------------------------|
|----------------------|--2-h-4-------------|--(4)-------X--4--4/-5--4--|
|----------------0-----|--2-h-4-------------|--(4)-------X--------------|
|--------------3----3--|--------------------|---------------------------|
|----------------------|--------------------|---------------------------|
|
|
| 
|----------------------|--------------------|---------------------------|
|----------------------|--------------------|---------------------------|
|----------------------|--------------------|---------------------------|
|----------------------|--------------------|---------------------------|
|--(7)-----------7-----|--7/-9--------------|--(9)----------------9--9--|
|--(5)--------0--5--0--|--5/-7--------------|--(7)-------------0--7--7--|

                                                                     end Rhy Fig 2A
|--0----------------|------------------|-----------------|-------------------------|
|--0----------------|------------------|-----------------|-------------------------|
|--4--------4-------|--3-------6-------|--4-------7------|--6-----------9----------|
|--5----------------|------------------|-----------------|-------------------------|
|-----------2-------|--1-------4-------|--2-------5------|--4-----------7----------|
|-------------------|------------------|-----------------|-------------------------|
|
|
|                                                                     end Rhy Fig 2
|-------------------|------------------|-----------------|-------------------------|
|-------------------|------------------|-----------------|-------------------------|
|-------------------|------------------|--4---4---4---4--|-----2--2--2--2--2-------|
|-------------------|------------------|--4---4---4---4--|-----2--2--2--2--2-------|
|--9-5----------5--|--5-4---------4--|--2---2---2---2--|--0--0--0--0--0--0-------|
|--7-3----------3--|--3-2---------2--|-----------------|-------------------/12--|

 Chorus
 ------
 SS 
 w/ Riff A (6 times)      Note: 3rd time to Coda (before Rhy Fill 1)

 Then

 Rhy Fill 1                                        end Rhy Fill 1
|--------------------------------|-------------------------------|
|--------------------------------|-------------------------------|
|------------12---12------------|----12---12-------------------|
|------------12---12------------|----12---12-------------------|
|--5---5-----10---10-----5---5--|----10---10-----5-------5-----|
|--3---3------------------3---3--|----------------3---0---3---0--|
                                                     PM      PM

 Half time feel                     end Half time feel
  ____________________________________________________
 |1.                                                  |
  w/ Rhy Fig 1B (2 times)
  ____________________________________________________
 |2.
  w/ Rhy Fig 1B (2 times) Rhy Fill 1 (2 times)

 Guitar Solo
|---------------------------------|------------------------------|
|--8-b10-----------r8--------5----|--(5)-------------------------|
|----------------------------5----|--(5)-------------------5/-7--|
|---------------------------------|-------7-~-~-----5-h-7--------|
|---------------------------------|------------------------------|
|---------------------------------|------------------------------|

|--------------------------|----------------------|-----------------------------|
|--10b12-r10--7------------|----------------------|-----------------------------|
|-------------7-----7/-11--|--9h11-~-~-----(11)--|--11--b12--11--9-------------|
|----------------9---------|----------------------|------------------12--11--9--|
|--------------------------|----------------------|-----------------------------|
|--------------------------|----------------------|-----------------------------|

|----------------------------|----------------------------|----------------------|
|----------------------------|----------------------------|----------------------|
|----------------------------|-------------------------9--|----------------------|
|--8-~-~--8--8--9---11---12--|--9-~-~--9--9--11---12------|--11-~-~--------------|
|----------------------------|----------------------------|----------------5-----|
|----------------------------|----------------------------|-------------0--3--0--|

 3rd verse w/ Rhy Figs 2 & 2A

 then D.S. al Coda SS

 Coda
|--------------------------|-------------------------------|
|--------------------------|-------------------------------|
|----------12--12---------|----12--12--------------------|
|----------12--12---------|----12--12--------------------|
|--5--5----10--10---5--5--|----10--10---5-5-5-5-5-5-5-5--|
|--3--3--------------3--3--|--------------3-3-3-3-3-3-3-3--|
                                         PM..............| 

 Outro
 w/ Riff A (1st 2 bars only) (12 times)


Текст, аккорды и табулатура для песни "Thorn Within", исполняет "Metallica".
Используемые в песне аккорды можно найти в разделе Как брать аккорды. Аккорды для шестиструнной гитары. Другие песни можно найти на нашем сайте, воспользовавшись алфавитным указателем вверху страницы.


Слушать онлайн Thorn Within [In the Style of Metallica]


The Karaoke UniverseThorn Within [In the Style of Metallica] на Яндекс.Музыке


 
Ошибка в тексте? Выделите ошибку и нажмите Ctrl+Enter