Tuning C G C F A D

.......= Palm mute

Intro 
Guitar 1 - Distorted
D---------------------------------------------------------------
A---3-----------------------------------------------------------
F---2-----------------------------------------------------------
C---0----------------------------------------------------------- X 9
G---0--0--0-0--0-0----------------------------------------------
C---0--0--0-0--0-0----------------------------------------------
       ...........

Guitar 2 over the top of guitar one - Clean
----------------------------------------------------------------
----------------------------------------------------------------
----------------------------------------------------------------
-----0---0---0---5---5---5--------------------------------------X 10
----------------------------------------------------------------
---0---0---0---3---3---3----------------------------------------


Guitar 1 - Distorted
----------------------------------------------------------------
----------------------------------------------------------------
----------------------------------------------------------------
---------------------------------------------------------------- X 2
--3p2--0-0--0-0--3p2--0--0-0------------------------------------
--3p2--0-0--0-0--3p2--0--0-0------------------------------------
       ........       ......

Guitar 1 - Disorted
-------------------|---------------------------------------------
-------------------|---------------------------------------------
-------------------|-X4--Then------------------------------X1----
-------------------|---------------------------------------------
--8-0-0--7-0-0--0--|------------8--7--0---8--7-------------------
--8-0-0--7-0-0--0--|------------8--7--0---8--7-------------------
    ...    ...

Guitar 2 - distorted with wah
----------------------------------------------------------------
----------------------------------------------------------------
----------------------------------------------------------------
---------------------------------------------X-2--then----------
--0-0--3p1---0-0--3p1---0-0--3p1---0-0--3p1-------------8-7-----
--0-0--3p1---0-0--3p1---0-0--3p1---0-0--3p1-------------8-7-----
  ...  wah   ...  wah   ...  wah   ...  wah

----------------------------------------------------------------
----------------------------------------------------------------
----------------------------------------------------------------
----------------------------------------------------------------
--0-0--3p1---0-0--3p1---0-0--3p1---0-0--3p1------8-7------------
--0-0--3p1---0-0--3p1---0-0--3p1---0-0--3p1------8-7------------
  ...  wah   ...  wah   ...  wah   ...  wah

Verse
Guitar 1 and 2 - Distorted

-------------------------------------------------------------
-------------------------------------------------------------
--------------------------------------The whole thing X3-----
-------------------------------------------------------------
-0-0--0-0-3p1--0--0-0-3p1- X2 --8-7--------------------------
-0-0--0-0-3p1--0--0-0-3p1-------8-7--------------------------
 ........      ......

----------------------------------------------------------
----------------------------------------------------------
----------------------------------------------------------
----------------------------------------------------------
-0-0--0-0-3p1- x7 -8-7------------------------------------
-0-0--0-0-3p1------8-7------------------------------------
 ........


Pre-Chorus
guitar 2 - distorted with wah
------------------------------------------------
------------------------------------------------
------------------------------------------------
------------------------------------------------
-0-0--3p1- x13 -0-0--8-7------------------------
-0-0--3p1-------0-0--8-7------------------------
 ...  wah       ... 

----------------------------------------------------
----------------------------------------------------
----------------------------------------------------
----------------------------------------------------
-0-0-0-0-3p1--0-0-0-3p1--0-0-0-0-3p1-0-0-0--8-7-----
-0-0-0-0-3p1--0-0-0-3p1--0-0-0-0-3p1-0-0-0--8-7-----
 .......      .....      .......     .....


1st Chorus 
Guitar 1 and 2 - Clean
this is kinda trick and would take forever to tab
properly so i will just tab te chords but you can 
work out the rythm yourself. 

------------------------------------------------------
------------------------------------------------------
-----7--------7-----7---------------------------------
-0---5--5--7--3--0--5--5--7---------------------------X 1
-0---3--3--5--3--0--3--3--5---------------------------
-0------3--5-----0-----3--5---------------------------

Guitar 1 and 2 - distorted
----------------------------------------------------------------
----------------------------------------------------------------
----------------------------------------------------------------
---------------------------------------------X-2--then----------
--0-0--3p1---0-0--3p1---0-0--3p1---0-0--3p1-------------8-7-----
--0-0--3p1---0-0--3p1---0-0--3p1---0-0--3p1-------------8-7-----
  ...  wah   ...  wah   ...  wah   ...  wah

----------------------------------------------------------------
----------------------------------------------------------------
----------------------------------------------------------------
----------------------------------------------------------------
--0-0--3p1---0-0--3p1---0-0--3p1---0-0--3p1------8-7------------
--0-0--3p1---0-0--3p1---0-0--3p1---0-0--3p1------8-7------------
  ...  wah   ...  wah   ...  wah   ...  wah

Then you play the Verse again

Then Pre Chorus

2nd Chorus
again i will just tab the chords.

Guitar 1 and 2 - Clean
---------------------------------------------------------
---------------------------------------------------------
----7--------5-7-----7-----------------------------------
-0--5--5--7--5-5--0--5--5--2--3--------------------------
-0--3--3--5--3-3--0--3--3--2--3--------------------------
-0-----3--5-------0-----3--2--3--------------------------

---------------------------------------------------------
---------------------------------------------------------
----7--------5-7-----7-----------------------------------
-0--5--5--7--5-5--0--5--5--2--3--5-------------------------
-0--3--3--5--3-3--0--3--3--2--3--5-------------------------
-0-----3--5-------0-----3--2--3--5-------------------------

Heavy Chorus
Guitars 1 and 2 distorted
------------------------------------------------------------------------------
------------------------------------------------------------------------------
-----------5-----------------------5-----5/7--7/5--7--------------------5-----
-----------5-------------8-7-5-----5-----5/7--7/5--5-----8-7-5----------5-----
-0-0-0--0--3--0-0-3-0-3--0-0-0-0-0-3-0-0-3/5--5/3--5-0-0-0-0-0--0-0-0-0-3-0-0-
-0-0-0--0-----0-0-3-0-3--0-0-0-0-0---0-0-------------0-0-0-0-0--0-0-0-0---0-0-
 .....        ...   .          ...   ...             ...        .......   ...

Hard Bit to tab 
-------------------------------------------------------------------------------
-------------------------------------------------------------------------------
-------------------------------------------------------------------------------
-2-x-x-x-x-2-x-x-x-x-2-x-x-3-x-x-x-x-3-x-x-x-x-3-x-x-5-x-x-x-x-5-x-x-x-x-5-x-x-
-2-x-x-x-x-2-x-x-x-x-2-x-x-3-x-x-x-x-3-x-x-x-x-3-x-x-5-x-x-x-x-5-x-x-x-x-5-x-x-
-2-x-x-x-x-2-x-x-x-x-2-x-x-3-x-x-x-x-3-x-x-x-x-3-x-x-5-x-x-x-x-5-x-x-x-x-5-x-x-


--------------------------------------------------------------
--------------------------------------------------------------
--------------------------------------------------------------
-3-x-x-x-x-3-x-x-x-x-3----------------------------------------
-3-x-x-x-x-3-x-x-x-x-3----------------------------------------
-3-x-x-x-x-3-x-x-x-x-3----------------------------------------

Interlude Bit
Guitar 1 - Distorted
--------------------------------------------------------------
--------------------------------------------------------------
--------------------------------------------------------------
-------------------------------------------------------------- X 4
--0-0--0-0--0-0--0-0------------------------------------------
--0-0--0-0--0-0--0-0------------------------------------------
  ..................


Guitar 2 - Distorted
unisen bend
--------------------------------------------------------------
--9-----------------9-------------9-----------------9---------
--11b---------------11b-----------11b---------------11b-------
--------------------------------------------------------------x 1
--------------------------------------------------------------
--------------------------------------------------------------


3rd verse
Guitar 1 - Distorted
--------------------------------------------------------------
--------------------------------------------------------------
--------------------------------------------------------------
-------------------------------------------------------------- x 8
-0-0--0-0--0-0--0-0-------------------------------------------
-0-0--0-0--0-0--0-0-------------------------------------------
 ..................

Guitar 2 - Clean
--------------------------------------------------------------
--------------------------------------------------------------
--------------------------------------------------------------
------0---0---0---5---5---5----------------------------------- x 8
--------------------------------------------------------------
---0----0---0---3---3---3-------------------------------------

Bit after the verse
--------------------------------------------------------------
--------------------------------------------------------------
--------------------------------------------------------------
--8-7---7-0-0-0--0-0------------------------------------------ x 2
--8-7---7-0-0-0--0-0------------------------------------------
--8-7---7-0-0-0--0-0------------------------------------------
          ..........

--------------------------------------------------------------
--------------------------------------------------------------
--------------------------------------------------------------
--8--7--0-0-0-8-0-7-0-0-0-8-0-0-0----------------------------- x 1
--8--7--0-0-0-8-0-7-0-0-0-8-0-0-0-----------------------------
--8--7--0-0-0-8-0-7-0-0-0-8-0-0-0-----------------------------
        .....   .   .....   ...

--------------------------------------------------------------
--------------------------------------------------------------
--------------------------------------------------------------
--8-7---7-0-0-0--0-0------------------------------------------ x 3
--8-7---7-0-0-0--0-0------------------------------------------
--8-7---7-0-0-0--0-0------------------------------------------
          ..........

-----------------------------------------------------------------
-----------------------------------------------------------------
-----------------------------------------------------------------
---7-0-0-0--0-0-------------------------------------------------- x 3
---7-0-0-0--0-0--------------------------------------------------
---7-0-0-0--0-0--------------------------------------------------
     ..........

weird wah thing
---------------------------------------------------------------------
---------------------------------------------------------------------
---------------------------------------------------------------------
---------------------------------------------------------------------
-0-0-0-3p1-- x 8 --0-0-0-3p1-3p1- x 2 --0-0-0-3p1-3p1-3p1-3p1--------
-0-0-0-3p1---------0-0-0-3p1-3p1--------0-0-0-3p1-3p1-3p1-3p1--------
 ..... wah         ..... wah wah        ..... wah wah wah wah

-------------------------------------
-------------------------------------
-------------------------------------
-0-0-0-3p1-- X 3  -------------------
-0-0-0-3p1---------------------------
-0-0-0-3p1---------------------------
 .....
          
Then it goes back into the Heavy Chorus
And then the 2nd Chorus
_________________________________________________________

And there you have it, god that took me a while to tab.

Feedback would be appreciated
Tab By Danny Simcox

p.s Does anyone else think St. Anger Sounds similar to System Of A Down


Текст, аккорды и табулатура для песни "The Unnamed Feeling", исполняет "Metallica".
Используемые в песне аккорды можно найти в разделе Как брать аккорды. Аккорды для шестиструнной гитары. Другие песни можно найти на нашем сайте, воспользовавшись алфавитным указателем вверху страницы.


Слушать онлайн The Unnamed Feeling (In the Style of Metallica)


Off the Record KaraokeThe Unnamed Feeling (In the Style of Metallica) на Яндекс.Музыке


 
Ошибка в тексте? Выделите ошибку и нажмите Ctrl+Enter