Tune all guitars down 1 full step

1)
F-----------------------------------
C-----------------------------------
G--2--4--------2--4----3-----4-----5
D--0--2--------0--2--2-----2-----2--
intro clean


2)
F-----------5-----6-----7-------------5------6------7-------
C-----------5-----6-----7-------------5------6------7-------
G-----------3-----4-----5-------------3------4------5------2
D--0--0-1-2-----2-----2------0--0-1-2----1-2----1-2----1-2-0
  pm.......     .     .      ........    ...    ...    ...
intro crunch
...Face the thing that should not be


3)
F--7-------7---7---3-------3---3---4-------4---4---------------------
C--7-------7---7---3-------3---3---4-------4---4----6----------------
G------------9---------------5---------------6------6-3-3-3-3-3-3-3-3
D----7-7-7---7-------3-3-3---3-------4-4-4---4--------1-1-1-1-1-1-1-1
    pm....           .....           .....            ...............
Great old one, forbidden site...


4)
F--------------------------------------------------------
C--2--4--------------------------------------------------
G--2--4-----------------------4-4-3-3-3-3-4-4-4-4-5-5-5-5
D--0--2-----------------------2-2-2-2-2-2-2-2-2-2-2-2-2-2
Messenger of fear in sight   Dark deception fills the light.
verse clean


5)
F--4---5------------------------------------------4--5
C--4---5------------------------------------------4--5
G--2---3---7-8-7-8-2-2-2-2-2-2-2-2-2-2-2-2-7-8-7--2--3
D----------5-6-5-6-0-0-0-0-0-0-0-0-0-0-0-0-5-6-5------
                   pm.....................
..is rising


6)
F--4--5-----4
C--4--5--3--4
G--2--3--3--2
D--------1---
In maddness you dwell.


7)
F--4--------------------4------------------4-5---4
C--4--------2-----------4-------2----------4-5-3-4
G--2------2---3-2-3-2-0-2-----2---3-2-3-2--2-3-3-2
D-----3-5-----------------3-5------------------1--
     pm..............   ...............
post solo

-----------------------
solo by Jake Horbol
                                                             
-----------------------7h10p|--7~---------------|
------------------------------------|
------------------------------------|
------------------------------------|
------------------------------------|
------------------------------------|
                               
------------------10-10-10-10-|
----17b-----------------------|
------------------------------|
------------------------------|
------------------------------|
------------------------------|
                                                                              
  
       x12                                        
-14p11p10------|
----------|--13r-------13-|
---------------|
---------------|
---------------|
---------------|
                                                                  
------------9-10-9h10p9-------------------------------|
-------9-10-------------10-8--------------------------|
--9h10-----------------------11-10--------------------|
-----------------------------------12-11-8-7----------|
---------------------------------------------|--9---8~------------|
------------------------------------------------------|
  dive                                                    
-----------14p11p10-14p11p10-14p11p10-14p11p10-14p11p|
-----------------------------------------------------|
--0--------------------------------------------------|
-----------------------------------------------------|
-----------------------------------------------------|
-----------------------------------------------------|
                                                                
--10-14p11p10-14p11p10-14p12p10/-------------------|
---------------------------------------------------|
----------------------------------12~--------------|
---------------------------------------------------|
---------------------------------------------------|
---------------------------------------------------|


Bass Fig1
G----------------------|
D----------------------|
A---1-------2-------3--|
E|--0--0--1--2-------2-------2-----|

Bass Fig2
G-----------------------------|
D-----------------------------|
A---1--------2--------3-------|
E|--0--0--1--2-----1--2-----1--2----0--2--|

Bass Fig3
G--------------------------------------------------------|
D--------------------------------------------------------|
A--------------------------------------------------------|
E|--7-7-7-7-10-7-10---6-3-3-3-6-3-6---7-4-4-4-7-4-7---4-1-1-1-1-1-1--|

Bass Fig4
G-|
D-|
A-|
E|--0--2------|
      Let ring  

Bass Fig5
G--------------------------------------------|
D--------------------------------------------|
A|--0----1-----------------------------------------------|
E-5--6--5-6-0-0-0-0-0-0-0-0-0-0-0---5--6--5--|

Bass Fig6
G---------|
D---------|
A|--0----1---------0--|
E-1-------|

Bass Fig7
G------------------------|
D------------------------|
A------------------------|
E|--5--6--5-6-0-0-0-0-0-0-0-0-0-0-0--|

Bass Fig8
G------------------------------------------------------|
D------------------------------------------------------|
A0--------0--1-0---1-0--0--------0--3-1-0-1-0--0----1--|
E|--5--6--5-----3--5---------3---------3--5------------------------|

Bass Fig9
G---------------|
D---------------|
A|--0--------0--5-1-0-1--0--|
E|-----3--5-----------------|


Текст, аккорды и табулатура для песни "The Thing That Should Not Be", исполняет "Metallica".
Используемые в песне аккорды можно найти в разделе Как брать аккорды. Аккорды для шестиструнной гитары. Другие песни можно найти на нашем сайте, воспользовавшись алфавитным указателем вверху страницы.


Слушать онлайн The Thing That Should Not Be


FlegmaThe Thing That Should Not Be на Яндекс.Музыке


 
Ошибка в тексте? Выделите ошибку и нажмите Ctrl+Enter