Metallica
 The Outlaw Torn
 written by: Hetfield, and Ulrich 
 as performed on Load
 TRANSCRIBED BY STEVE GORENBERG
   BASS FIG 1           
 --------------------------------------------------------
 --------------------------------------------------------
 |-5--7--------7-----7-----5--7--------7-----7-----9--5-5---5-5-5-5--
 |-------0--0--0--0--0--0----------0-0-0--0--0--0--------------------
 
 ----------------------------------------------------|
 ----------------------------------------------------|
 -5--------5-------9---5--5---5-5-5-5--5-----------5-|
 ---0-3-2-----0---------------------------0--3--0----|
  BASS FIG 2
 -------------------------------------------------|
 |--------2----------------------------2----------------------|
 -------------------------------------------------|6X`s
 |-0--3------3-2-3--3---5---3--3---3------3P2-3-2-3--3--3---3-|
  BASS FIG 3
 -----------------------------------------------------
 -----------------------------------------------------
 5--------------5-----------------9-------------5-----
 |-5-9-9-9-9----9-7-9-9-9-9-----7--5--7-7-7-7---9-7-9-7-9-7---5-0-
                                           END BASS FIG 3
 --------------------------------------------------------|
 --------------------------------------------------------|
 ---------3------------5---------------------------------|
 -5-5-5-5----5-3-5-3-3----5-3--5-5-5-5-5--5-5-5--5-5-3-2-|
 
   CHORUS W/ BASS FIG 1 3X`s
 
 2 verse w/ bass fig 2 4x`s
 
 ----------------------------------------------------------|
 ---------------5-5----------------------------------------|
 |---------7--5-5-7---7-7-7-----5-5-5-5-5-5-5--9---5--5--5-5-5-------5-|
 |-5-7-0-0-0--------0------------------------------------------0-3-2---|
 
 ------------------------------------------------------|
 ------------------------------------------------------|
 |---------5--5----5-5-5-5-5--7-7-7-7--9--5--5-5-5-5-5-5-----------|
 |-5-7-0-0-0--0--0---------0-----------------------------0-3-2-5-0-|
 
 --------------------------------------------------|
 |-7--9--------------------------------------------------------|
 |-5--7----------3---------------------------------------------|
 |-------0-0-0-0---5---3-5-5-5-0--3-5-5-5-5-5-5-0-3--2-3-3-3-0-|
  BRIDGE
 ------------------------------------------------------|
 |-7--9------------------------------------------------------------|
 |-5--7----------5-------------------------------------------------|
 |-------0-0-0-0----5---3-5-5-5-5-0--3-5-5-5-5--5-0-3H5------2-2-2-|
 
 --------------------------------------------------------|
 |-7--9--------------------------------------------------------------|
 |-5--7-----------5--------------------------------------------------|
 |-------0-0-0-0----5---3-5-5-5-5-0--3-5-5-5-5-5-5-0-5-3---2-3-3-3-0-|
                                                                 END FIG4
 -----------------------------------------------------------|
 |-7--9-----------------------------------------------------------------|
 |-5--7-----------5-----------------------------------------------------|
 |--------0-0-0-0----5---3-5-5-5-0-3-5-5-5-5--5-5-3H5--3-3-3-3-3-2-2-2-2|
   
   1. INTERLUDE W/ FIG 4 2X`s   2. W/ FIG 2 2X`s  W/ FIG 3
    
      3. GUITAR SOLO W/ FIG 4      4. OUTRO W/ FIG 4 2X`s
 
 --------------------------------------------------------|
 --------------------------------------------------------|
 --------------------------------------------------------|
 |-0--0--0--1--1---1---2---2---2---3---3---3---0---0---0----1--1---1-|
 
 -----------------------------------------------------------|
 -----------------------------------------------------------|
 -----------------------------------------------------------|
 |-2---2---2---3---3---3---0---0-0-0---1--1--1--1--2--2--2--2--3-3-3-3-3|
 
 ---------------------------------------------------------|
 ---------------------------------------------------------|
 ---------------------------------------------------------|
 |-0----0----0----1----1----1----1---2---2---2---2---3----3----3----3-|
 
 ---------------------------------------------------------
 ---------------------------------------------------------
 ---------------------------------------------------------
 |-0--0-0-0-0-0-0--0-0-0-0-1-1-1-1-1-1-1-1-1-1-1-1-1--2-2-2-2-2-2-2-2-2
 
 -------------------------|
 -------------------------|
 -------------------------|REPEAT AND FADE
 -3-3-3-3-3-3-3-3-3-3-3-3-|
 



Текст, аккорды и табулатура для песни "The Outlaw Torn", исполняет "Metallica".
Используемые в песне аккорды можно найти в разделе Как брать аккорды. Аккорды для шестиструнной гитары. Другие песни можно найти на нашем сайте, воспользовавшись алфавитным указателем вверху страницы.


Слушать онлайн Outlaw Torn [In the Style of Metallica]


The Karaoke UniverseOutlaw Torn [In the Style of Metallica] на Яндекс.Музыке


 
Ошибка в тексте? Выделите ошибку и нажмите Ctrl+Enter