Все гитар на полтона вниз	
1)
eb----------------------------------
Bb------------------------------5//7
Gb------------------------------5//7
Db------3------5------3------5--5//7  несколько раз 
Ab----3------5------3------5--------                 --3-3-3-3-3
Eb--1------3------1------3----------                 --1-1-1-1-1
   дать прозвучать.........................          pm........


2)
eb---------------------------------------------
Bb------------------------------0--------------
Gb----------------------------2------4------2--
Db--2---5--3p5p3p0-2-3-2----3------5------3---3
Ab--2------------------------------------------
Eb--0------------------------------------------


3)
Db----------------------------------2-3
Ab--1-2-2-1-2-2-2-1-2-2-1-2-2-2-3-5-0-1
Eb--0-0-0-0-0-0-0-0-0-0-0-0-0-0-1-3----
  pm...................................
Opened my eyes


4)
Gb--------------5--7----------------------5--------
Db--------5--7--3--5--5--7-7--------5--7--3--5-----
Ab--3--5--3--5--------3--5-5--3--5--3--5-----3--3-3
Eb--1--3----------------------1--3--------------1-1
                                              pm..
The higher you walk


Басс (пока все, что есть...)
Главный рифф
D----------------------|
G----------------------|
A----------------------|
E-|--5-5--3-3---5-5--3-3---5-5--3--|

Потом идет эта часть – послушайте - разберетесь
D----------------------------|
G----------------------------|
A-2-2-2-2--3-3-3-3--5-5-5-5--|
E-|--5-5-5-5-----------------------------|


Текст, аккорды и табулатура для песни "The House Jack Built", исполняет "Metallica".
Используемые в песне аккорды можно найти в разделе Как брать аккорды. Аккорды для шестиструнной гитары. Другие песни можно найти на нашем сайте, воспользовавшись алфавитным указателем вверху страницы.


Слушать онлайн The House Jack Built


GodeaterThe House Jack Built на Яндекс.Музыке


 
Ошибка в тексте? Выделите ошибку и нажмите Ctrl+Enter