The Chase is Better Than the Catch
written by Motorhead
as performed at Lemmy's Birthday Party
tab by Phil Boyle; [email protected]


1)

Gb-------------------------------7------
Db--------------5-7--------------5-7-5-7 twice
Ab--5h7-7-7-7-7-3-5--5h7-7-7-7-7---5-3-5
Eb--0-0-0-0-0-0------0-0-0-0-0-0--------
   pm................................

intro2)
Gb----------4/7----------4/7----------4/7----
Db----------2/5----------2/5----------2/5-5-7
Ab----------------------------------------3-5
Eb--0-0-0-0------0-0-0-0------0-0-0-0--------
  pm.......      .......      .......

You know I'm mad...

3)

Gb----------------------------------------------------------------------
Db--2-2-4-4-2-2-4-2-2-4-2-2-4--2-2-4-4-2-2-4-2-2-4-2-2-4--3----5--3----5
Ab--0-0-0-0-0-0-0-0-0-0-0-0-0--0-0-0-0-0-0-0-0-0-0-0-0-0--3----5--3----5
Eb--------------------------------------------------------1----3--1----3
   pm...................................................................

Come on baby...

(timing is real messed up on this one)

====


Текст, аккорды и табулатура для песни "The Chase Is Better Than The Catch", исполняет "Metallica".
Используемые в песне аккорды можно найти в разделе Как брать аккорды. Аккорды для шестиструнной гитары. Другие песни можно найти на нашем сайте, воспользовавшись алфавитным указателем вверху страницы.


 
Ошибка в тексте? Выделите ошибку и нажмите Ctrl+Enter