Somekind of monster
by Metallica
written by Hetfield/Ulrich/Hammett/Rock
available on St. Anger album
tabbed by Tero Saikkonen from Finland!!!
[email protected]
[email protected]

Guitars Dropped-C tuning (Strings on D) 
(like all songs in st. Anger album, except 
Dirty Window(C#-dropped B) Invisible Kid(A#-dropped G#)
and The Unnamed Feeling(C-dropped A#))
6=C 3=F
5=G 2=A
4=C 1=D

INTRO /acoustic
|------------------------------------------------------|
|------------------------------------------------------|
|------------------------------------------------------|
|------------------------------------------------------|
|-0----0-0----3--5--0------0--3--5--0--3--5--0--3--5---|
|-0----0-0----3--5--0------0--3--5--0--3--5--0--3--5---|

|------------------------------------------------------|
|------------------------------------------------------|
|------------------------------------------------------|
|------------------------------------------------------|
|-0----0-0----3--5--0------0--3--5--0--3--5--0---------|
|-0----0-0----3--5--0------0--3--5--0--3--5--0---------|

|------------------------------------------------------|
|------------------------------------------------------|
|------------------------------------------------------|
|------------------------------------------------------|
|-0----0-0----3--5--0------0--3--5--0--3--5--0--3---_--|
|-0----0-0----3--5--0------0--3--5--0--3--5--0--3--785-|

|------------------------------------------------------|
|------------------------------------------------------|
|------------------------------------------------------|
|------------------------------------------------------|
|-0----0-0----3--5--0------0--3--5--0--3--5--0---------|
|-0----0-0----3--5--0------0--3--5--0--3--5--0---------|

ALL BAND
MAINRIFF /distortion
                    P.M._____       __       __|
|-----------------------------------------------------| -4-
|-----------------------------------------------------|  T
|-----------------------------------------------------|  I
|-----------------------------------------------------|  M
|-0----0-0----3--5--0------0--3--5--0--3--5--0--3--5--|  E
|-0----0-0----3--5--0------0--3--5--0--3--5--0--3--5--|  S

|-------------------|
|-------------------|
|-------------------|
|-------------------|
|-3-3-3-------------|
|-3-3-3-------------|

GTR I
|--------------------------------------------------| 
|--------------------------------------------------|  
|--------------------------------------------------|  
|--------------------------------------------------|  
|-5--0-----------------------------3-3-3-----------|  -2-
|-5--0-----------------------------3-3-3-----------|   T
|                                                  |   I 
|GTR II                                            |   M
|--------------------------------------------------|   E
|-----------------------8--------------------------|   S
|-----------------------7--------------------------|
|--------------------------------------------------|
|--------------------------------------------------|
|--------------------------------------------------|

                           _________________________________________________
GTR I                     |1,2,3 times             |4th time                |
|--------------------------------------------------|------------------------|
|--------------------------------------------------|------------------------|
|--------------------------------------------------|------------------------|
|--------------------------------------------------|------------------------|
|-5--0-----------------------------3-3-3-----------|--------3-3-3-----------| -4-
|-5--0-----------------------------3-3-3-----------|--------3-3-3-----------|  T
|                                                  |                        |  I
|GTR II                                            |                        |  M
|--------------------------------------------------|-?----------------------|  E
|--------------------|--------------------|--------|-|----------------------|  S
|-------------10----12-------------10----12--------|-12---------------------|
|----12----12-------------12----12-----------------|------------------------|
|--------------------------------------------------|--------3-3-3-----------|
|--------------------------------------------------|--------3-3-3-----------|


  P.M.___________         ____________________________         _______________|
|--------------------------------------------------------------------------------------| -2-
|--------------------------------------------------------------------------------------|  T
|--------------------------------------------------------------------------------------|  I
|--------------------------------------------------------------------------------------|  M
|-0-0-0-0-0-0-0-0-3---5---0--------0---0-0-0-0-0-0-0-0-0---3---0-0-0-0-0-0-0-0-3---5---|  E
|-0-0-0-0-0-0-0-0-3---5---0--------0---0-0-0-0-0-0-0-0-0---3---0-0-0-0-0-0-0-0-3---5---|  S

|-------------------|
|-------------------|
|-------------------|
|-------------------|
|-3-3-3-------------|
|-3-3-3-------------|
                           _________________________________________________
GTR I                     |1,2,3 times             |4th time                |
|--------------------------------------------------|------------------------|
|--------------------------------------------------|------------------------|
|--------------------------------------------------|------------------------|
|--------------------------------------------------|------------------------|
|-5--0-----------------------------3-3-3-----------|--------3-3-3-----------| -4-
|-5--0-----------------------------3-3-3-----------|--------3-3-3-----------|  T
|                                                  |                        |  I
|GTR II                                            |                        |  M
|--------------------------------------------------|-?----------------------|  E
|--------------------|--------------------|--------|-|----------------------|  S
|-------------10----12-------------10----12--------|-12---------------------|
|----12----12-------------12----12-----------------|------------------------|
|--------------------------------------------------|--------3-3-3-----------|
|--------------------------------------------------|--------3-3-3-----------|

GTR I
|--------------------------------------------------| 
|--------------------------------------------------|  
|--------------------------------------------------|  
|--------------------------------------------------|  
|-5--0-----------------------------3-3-3-----------|  -2-
|-5--0-----------------------------3-3-3-----------|   T
|                                                  |   I 
|GTR II                                            |   M
|--------------------------------------------------|   E
|-----------------------8--------------------------|   S
|-----------------------7--------------------------|
|--------------------------------------------------|
|--------------------------------------------------|
|--------------------------------------------------|

  P.M.___________         ____________________________         _______________|
|--------------------------------------------------------------------------------------| -2-
|--------------------------------------------------------------------------------------|  T
|--------------------------------------------------------------------------------------|  I
|--------------------------------------------------------------------------------------|  M
|-0-0-0-0-0-0-0-0-3---5---0--------0---0-0-0-0-0-0-0-0-0---3---0-0-0-0-0-0-0-0-3---5---|  E
|-0-0-0-0-0-0-0-0-3---5---0--------0---0-0-0-0-0-0-0-0-0---3---0-0-0-0-0-0-0-0-3---5---|  S

OTHER GUITARS TACET (silence)
GTR I plays:
|--------------------------------------|-2-
|--------------------------------------| T
|--------------------------------------| I
|--------------------------------------| M
|----------_--------------_------------| E
|-0----0-10-12-----0----10-12---0------| S

BAND IN
|--------------------------------------|-4-
|--------------------------------------| T
|--------------------------------------| I
|--------------------------------------| M
|-0--------_-------0----------_--------| E
|-0----0-10-12-----0----10-12---0------| S

VERSE
  (These are the eyes that can?t see me...)
GTR I
| |---------------------------------------------------------------------------
| |--------------------------------------------------------------------------- 
| |--------------------------------------------------------------------------- 
| |--------------------------------------------------------------------------- 
|o|-0--------_-------0----------_--------0----------------0------------------- 
| |-0----0-10-12-----0----10-12---0------0----0-10-12-----0----10-12---0------ 
| |                                                                           
| GTR II            wh/effect                                                 
| |---------------------------------------------------------------------------
|o|---------------------------------------------------------------------------
| |-----------------full*-----------------------------------------------------
| |-----------------|---------------------------------------------------------
| |-----------------6---------------------------------------------------------
| |---------------------------------------------------------------------------
(* notice that when there reads full, you have to pull hole
step that note. in this case, 6 pulls to 8. So the sound 
is --8--) 
GTR I
---------------------------------------------------------------------------| |
---------------------------------------------------------------------------| |
---------------------------------------------------------------------------| |
---------------------------------------------------------------------------| |    (


Текст, аккорды и табулатура для песни "Some Kind Of Monster", исполняет "Metallica".
Используемые в песне аккорды можно найти в разделе Как брать аккорды. Аккорды для шестиструнной гитары. Другие песни можно найти на нашем сайте, воспользовавшись алфавитным указателем вверху страницы.


Слушать онлайн Some Kind of Monster [in the Style of Metallica]


The Karaoke UniverseSome Kind of Monster [in the Style of Metallica] на Яндекс.Музыке


 
Ошибка в тексте? Выделите ошибку и нажмите Ctrl+Enter