Metallica
 Poor Twisted Me
 written by: Hetfield, and Ulrich
 as performed on Load
 TRANSCRIBED BY: STEVE GORENBERG 
 
 
   INTRO  (GUITAR)
 -----------------------------------------------|
 ----------------5-|-7-7-7-7--7-7-7-7--(7)--7-7-7-7-7-5-----|
 -------------------------------------------75-|
 -----------------------------------------------3
 
  BASS FIG 1                                     END FIG 1
 -----------------------------------------------|
 -----------------------------------------------|
 -----------3-----------------------------------|
 |--5---5-3-5---5-3--5-----------5----5-3-5-----5--3---5--3-|
 
   1,2 VERSES
 ------------------------------------------------
 ------------------------------------------------
 ------------------------------------------------
 |-5--5--5--5--53-------------------------5--5--5--5--53--
 
 ---------------------------------------------------------------------
 ---------------------------------------------------------------------
 ---------------------------------------------------------------------
 -5--5--5--5--5----3-----------X--0H3H5--3--3-3-3--3-3-3--3-3-3-3-3-
 
 --------------------------------------------------------------------|
 --------------------------------------------------------------------|
 -----------------------------------------------------3--------------|
 -3-3-3-----3--3--3-3-3-3---3-3-3-3---5--5-3-5--5-3-5----------------|
 
 -------------------------------------------------|
 -------------------------------------------------|
 ---------------------------3-5---5-5-5---5/7---5-|
 |-5---5-3-5--5-3-5--3---------0---3H5------------------------|
 
 -----------------------------------------------------|
 -----------------------------------------------------|
 |--3---3-3-3-3/-7-----------------------/7-7-7-7-7-7-7-7-7-7-7-7-|
 -------0--3-3-3-3-3-3-5-3---0-0-0-0-0-0-0-0-0-0-0-0-|
 
    BASS FIG 1  2X`s
 
 ---------------------------------------------------------
 ---------------------------------------------------------
 --------------------3------------------------------------
 |-5---5-3-5---5-3-5-5-5-3-5-3-5---5-----5---3---5----5-5-3--5--5-3-5-
 
 ---------|
 ---------|
 ---------|
 -3--5--3-|
 
   BRIDGE (BASS FIG 2)
 ----------------------------------
 ----------------------------------
 ---------------------|--%---------------------
 |-3--3--3-3-3-3-3-3--3-3---3-3-5-|-----|-3--3--3--3--3--3--3--3--3--3-
 
 ----------------------------------------------------------------------
 ----------------------------------------------------------------------
 --------------------------------------------------7-------------------
 -3---3---3--3--3--3--3--2--2--1--1--0--0--0--0--0---0--0--0--0--0--0--
 
                   END FIG 2
 ----------------------------|
 ----------------------------|
 ----------------------------|
 -0--0--0--3--3--0--0--3--3--|
 
   GUITAR SOLO W/FIG 1  2X`s
 
 ----------|        ----------------------------
 ----------|        |---7-5---------------------------------
 ----------| 2X`s   |-------7-------------------------3-----
 |-0-0-0-0--(0)--(3)-|        |---------5--5-3-5--5-3-5---5-3-5---5-5-
 
 ----------------------------------------------|
 ----------------------------------------------|
 -3-------------------------7------------------|
 ---5----5-3-5---/5--3---5------5--/5--3-5-3-5-|
 
    BRIDGE (BASS FIG 2)
 
     3RD VERSE
 ---------------------------------------------------------
 ---------------------------------------------------------
 |-5--5--5--5--5/7--5--3---3--3--3--3-/7------------------------------
 ----------------------------0--3--3--3--3--3--3--3--3--5-
 
 ----------------------------------------------------------------------
 ----------7--7--7--7--------------------------------------------------
 ----------------------7--4--5--5--5--5--5--5--7--5--3--3---3----3-----
 -5--5--5--------------------------------------------------------------
 
 --------------------------------------------------------------|
 --------------------------------------------------------------|
 --57----------------------------------7--7--7--7--7--7--7--7-|
 -----0--3---3--3--3---3/--0--0--0--0---0--0--0--0--0--0--0--0-|
 
     BASS FIG 1  1 1/2X`s
 
 ------------------------------------|
 ------------------------------------|
 ------------------------------------|
 |-5---5--3--5-3/-5-3/-5--3-----------5-5-5-5-|
 
  



Текст, аккорды и табулатура для песни "Poor Twisted Me", исполняет "Metallica".
Используемые в песне аккорды можно найти в разделе Как брать аккорды. Аккорды для шестиструнной гитары. Другие песни можно найти на нашем сайте, воспользовавшись алфавитным указателем вверху страницы.


 
Ошибка в тексте? Выделите ошибку и нажмите Ctrl+Enter