1---------------------------------------------------------------
2----3h2---3h2---3-3h2------------------------------------------
3|------2-4b6b4------4-----2-------4----------------------------------------
4|--2h4---------------------------------------------------------------------
5---------------------------------------------------------------
6---------------------------------------------------------------

1---------------------------------------------------------------
2|--7h5-5h3-3h22h0------------2h3h2---2-3h2---------------------------------
3------2-2b4--2b4-------4-------2-2b4---------------------------
4---------------------------------------------------------------
5---------------------------------------------------------------
6---------------------------------------------------------------


1|----7---------------------------------------------------------------------
2|--7---10h8-7h8------------------------------------------------------------
3|--7------------7—7h6-7-9h7-9-11h9-11-12-12-11----------------------------
4|--9-----------------------------------------------------------------------
5---------------------------------------------------------------
6---------------------------------------------------------------


1----------7---------9-10-10b12-10-9-10-9h-10-------------------
2|------7-8-10-----7-8---------7--------------------------12----------------
3|----7----------7-----------7----------------------------------------------
4|--9----------9-----------7------------------------------------------------
5------------9--------------------------------------------------
6---------------------------------------------------------------



Текст, аккорды и табулатура для песни "One (solo)", исполняет "Metallica".
Используемые в песне аккорды можно найти в разделе Как брать аккорды. Аккорды для шестиструнной гитары. Другие песни можно найти на нашем сайте, воспользовавшись алфавитным указателем вверху страницы.


Слушать онлайн One - (Tribute to Metallica)


Brand New RockersOne - (Tribute to Metallica) на Яндекс.Музыке


 
Ошибка в тексте? Выделите ошибку и нажмите Ctrl+Enter