1)
D--2--2--2--2--2--2--2--2--2-9---10--11--12
A--2--2--2--2--2--2--2--2--2-7---8---9---10
E--0--0--0--0--0--0--0--0--0---0---0---0---
вступление


2)
D--------------4-3-----------------
A---------3-2--2-1--------0h5h7p5h7
E--0--0-0-1-0-------0h5h7----------
Off through the...(иногда с окончанием, иногда – без него – сами разберетесь)


4)
D----------4-3----------6-5----------6-4
A--2-2-3-2-2-1--2-2-3-2-4-3--4-4-5-4-4-3
E--0-0-1-0------0-0-1-0------2-2-3-2----
Nose to the wind...


5)
D------------------------------
A------5--------5-4--4--4--4--4
E--2-2-3-2--2-2-3-2--2--2--2--2
Back to the meaning...


6)
D------------------4-3
A--------3-2-------2-1
E--0-0-0-1-0-0-0-0----
пресоло



соло                                                                             
---------------------------|
---------------------------|
|--4p2p0---0----4p2p0---0----4p2p0-----|
|--------2------------2------------2p0-|
---------------------------|
---------------------------|


                                                   
--------------------------------------------------|
--------------------------------------------------|
--4p2p0-------------4p2p0-4p2p0-------------------|
--------4p2p0-------------------4p2p0-4p2p0-------|
--------------4p2p0-------------------------4p2p0-|
--------------------------------------------------|


                                                                              
 
------------------------------------------------------------------|
------------------------------------------------------------------|
--------------------------------------------------------12h14-14b-|
--------------------------------------------------12h14-----------|
--2p0-3p0-4p0-5p0-6p0-7p0-8p0-9p0-|--9p0-10p0-11p0-12p0-12h14-----------------|
------------------------------------------------------------------|


                                                           
----------------------------------------------------------|
--8----------12-15----12-15p12----12h15p12----12h15p12----|
----9---9/14-------14b---------14----------14----------14-|
----------------------------------------------------------|
----------------------------------------------------------|
----------------------------------------------------------|


                                                                         
------------------------------------------------------------------------|
--12h15p12----12h15p12----12h15p12----12h15p12----12h15p12----12h15p12--|
-----------14----------14----------14----------14----------14-----------|
------------------------------------------------------------------------|
------------------------------------------------------------------------|
------------------------------------------------------------------------|


                                       
--------------12-------------12-------|
--15b--15b-------15p12----12----15p12-|
-----------------------14b------------|
--------------------------------------|
--------------------------------------|
--------------------------------------|


                                                                           
-----12-12----------------------------------------------------|
-----------15p12----12-15p12----------------------------------|
--14b------------14b---------14p12----12-14b--|--12-----------------------|
-----------------------------------14---------|-----14~-------14--8/-17--|
--------------------------------------------------------------|
--------------------------------------------------------------|


                                         
----------------------------------------|
--15--15-15--15-15--17p15----15--15-15--|
--15--15-15--15-15--17p15----15--15-15--|
--------------------------17------------|
----------------------------------------|
----------------------------------------|


                                               
----------------------------------------------|
--17p15---------------------------------------|
--17p15----15-17p15----15-17p15-----------15-|
--------17----------17----------17-15-17------|
----------------------------------------------|
----------------------------------------------|


                                     
------------------------------------|
----------------------------8----8--|
-----------8----8--10-8-10----10----|
--10-8-10----10---------------------|
------------------------------------|
------------------------------------|


                                             
-----8--------------------------------------|
--11b--11p8----8-11p8-11b-13-13-13-13-13-13-|
------------10b-----------------------------|
--------------------------------------------|
--------------------------------------------|
--------------------------------------------|


                                                                
---------------------------------------------------|
--13--13-13--13--13--13--13--13--13-|--11r-------8-------------|
---------------------------------------9~----------|
---------------------------------------------10/14-|
---------------------------------------------------|
---------------------------------------------------|


                                                            
-----------------------------------------------------------|
--------------14p12----------------14p12----------------14p|
--12h14p12-------------12h14p12-------------12h14p12-------|
-----------14-------14----------14-------14----------14----|
-----------------------------------------------------------|
-----------------------------------------------------------|


                                                                          
-------------------------------------------------------------|
--12----------------14p12-----------------------12-------12--|
--------12h14p12-------------12h14p12-----------12-------12--|
-----14----------14-------14----------14-12-14---------------|
-------------------------------------------------------------|
-------------------------------------------------------------|



Басс
Обозначения
| |
| |  Такт
| |
| |

   (X)
|    | Повторить Х раз  
|X  X|
|X  X|
|    |

 /-				   (3) «мягкая» нота	
2 H 3 Хамер                       . Продлить ноту 
(2/4) TIME SIGNATURES             ,/ слайды
1------- только в первый раз      (1)----- в первый раз
2------- только во второй раз     1.2.3---- 1ый, 2ой и 3ий разы
4------- в 4ый раз                * Эти ноты вообщето играются на октаву ниже 

W целая  		H половинная           Q quarter note
E восьмая		S 16ая           	T-T-T триоль восьмыми 
t-t-t триоль 16ми


116 bpm (4/4) Вступление:   (5)
   W||  E E E E E E E E  ||  W| (W)| (W)| (W)| (W)  |
g:-R|--------||---|----|----|----|------|
D:-R||X-----------------X||X--|----|----|----|-----X|
A:-R||X-----------------X||X--|----|----|----|-----X|-
E:-R||--0-R-0-R-0-R-0-R--||--0|-(0)|-(0)|-(0)|-(0)--|

1ый куплет
   E S S Q. Q Q.| Q Q. Q Q.| Q Q. Q Q.| Q Q. Q Q.| E S S Q. Q Q.| Q Q. Q Q.|
G:--------------|----------|------------|----------|
D:--------------|----------|------------|----------|
A:--------------|----------|------------|----------|
E:-0-0-0-0--R-0-|-R-0--R-0-|-R-0--R-0-|-R-0--R-0-|-0-0-0-0--R-0-|-R-0--R-0-|

   Q Q. Q Q.| E S S E E E S S E E|  E S S E E E E E E| (E) E E E E E E E  |
G:------------------------------------|
D:-------------------|X--------------------------X|
A:----------------2-1|X-------------2---1|-(1)---------------X|
E:-R-0--R-0-|-0-0-0-1-0-0-0-0----|--0-0-0-1-0-0---0--|-----0-0-0-0-0-0-0--|

2ой и 3ий куплеты                      (4)                     (2/4)  
     E S S E E E E E E| (E) E E E E E E E  | E E E E E E E E| E E E E|
G:----------------------|--------|
D:|X--------------------------X-----|--------|
A:|X-------------2---1|-(1)---------------X-----|---2---1|
E:|--0-0-0-1-0-0---0--|-----0-0-0-0-0-0-0--|-0-R-0-R-0-R-0-R|-0---0--|

(4/4) припев
   (E) E E E E E E E| E E E E E E E E| (E) E E E E E E E| E E E E E E E E|
G:-----------------------------------|
D:-----------------------------------|
A:-(1)-1-1-1-1-1-1-12---1|-(1)-1-1-1-1-1-1-14---3|
E:------------------|-0-0-1-0-0---0---------|-0-0-1-0-0---0--|

   (E) E E E E E E E| E E E E E E E E| (E) E E E E E E E| E S S E E E S S E |
G:--------------------------------------|
D:--------------------------------------|
A:-(3)-3-3-3-3-3-3--4---3|-(3)-3-3-3-3-3-3----------|
E:-----------------0|-2-2-3-2-0---0-------0-|2-2-2-3-2-2-2-2-3-2|

                   
1                                                       
   E E E E E E  Q | E S S E E E E E E| (E) E E E E E E E| E S S E E E E E E|
G:-------------------------------------|
D:-------------------------------------|
A:------------------2---1|-(1)----------------2---1|
E:-2-r-2-r-2-r-12|-0-0-0-1-0-0---0--|-----0-0-0-0-0-0-0|-0-0-0-1-0-0---0--|

(1)                                 2                         (3)
    E  E S   S   S S E   E E   E   | E S S Q. Q E|  (E) Q. Q Q  | W| (W)|
G:--------------------------------------|--|----|
D:--------/----------/----/----X--|X------------X|--|----|
A:-(1)---5-H-7-P-5---5-H-7-5-H-7-X|----------R-7|X-(7)------7-X|--|----|
E:-----0-------/--7---------------|-0-0-0-0--R--|------0--R----|-0|-(0)|

Когда соло                
     E S S E E E S S E S S| E S S E E E S S E S S| E S S E E E S S E S S|
G:----------------------------------|
D:|X--------------------------------------------|
A:|X--------------------------------------------|
E:|--0-0-0-1-0-0-0-0-0-0-0|-0-0-0-1-0-0-0-0-0-0-0|-0-0-0-1-0-0-0-0-0-0-0|

   E E Q. E E E| E E E E E E E E| (E) E E E E E E E| E E E E E E E E|
G:------------------------------|
D:------------------------------|
A:-------------2---1|-(1)-1-1-1-1-1-1-1|-1-1-1-1-1-4-1-3|-
E:-3-R-3--1-R-1|-0-0-1-0-0---0--------------|


   (E) E E E E E Q | E E E E E E E| E S S E E E E E E| (E) E S   S  S  S E   E E   E|
G:----------------------------------------------|
D:-----------------|-*---*---*---*-------|--------/----------/----/--|
A:-(3)-3-3-3-3-3-3|-3-R-4-R-5-R-6--2---1|-(1)---5-H-7-P-5---5-H-7-5-H-7|
E:--------------------|-0-0-0-1-0-0---0--|-----0-------/--7------------|

   E S S E E E E E E| (E) E S   S  S  S E   E E   E| (H) E E S S E| (W)|
G:----------------------------------------|----|
D:------------------|--------/----------/----/-----|----|
A:-------------2---1|-(1)---5-H-7-P-5---5-H-7-5-H-7|-(7)----------|----|
E:-0-0-0-1-0-0---0--|-----0-------/--7------------|-----3-0-3-3-2|-(2)|

вступление (7) I FEEL ...                                                 
       (4)
   W||  (W)  | E S S Q. Q Q.| Q Q. Q Q.| Q Q. Q Q.| Q Q. Q Q.|  E S S E E S S E E  |
G:--||----------|----------|-------------------|
D:--||X-----X---|----------|----------|----------|X-------------------X|
A:--||X-----X---|----------|----------|----------|X---------------4-3-X|
E:-0||--(0)--|-0-0-0-0--R-0-|-R-0--R-0-|-R-0--R-0-|-R-0--R-0-|--2-2-2-3-2-2-2------|

                                 конец 3его припева
   E E E E E E E| E E E E E E E | E S S E E E S S E E|
G:---------------------------|
D:-*---*---*---*|-*---*---*---*----------|
A:-3-R-4-R-5-R-6|-4-R-5-R-6-R-7---------|
E:------------------|-2-2-2-3-2-2-2-2-3-2|


Off through the new day´s mist I run
Off from the new day´s mist I have come
I hunt therefore I am
Harvest the land
Taking of the fallen lamb
Off thruogh the new day´s mist I run
Off from the new day´s mist I have come
We shift
Pulsing with the earth
Company we keep
Roaming the land while you sleep

Shape shift, nose to the wind
Shape shift, feeling I´ve been
Move swift, all senses clean
Earth´s gift, back to the meaning of life

Bright is the moon high in starlight
Chill is the air cold as steel tonight
We shift
Call of the wild
Fear in your eyes
It´s later than you realized

I feel I change
Back to a better day
Hair stands on the back of my neck
In wildness is the preservation of the world
So seek the wolf in thyself

Shape shift, nose to the wind
Shape shift, feeling I´ve been
Move swift, all senses clean
Earth´s gift
Back to the meaning of wolf and man


Текст, аккорды и табулатура для песни "Of Wolf And Man", исполняет "Metallica".
Используемые в песне аккорды можно найти в разделе Как брать аккорды. Аккорды для шестиструнной гитары. Другие песни можно найти на нашем сайте, воспользовавшись алфавитным указателем вверху страницы.


Слушать онлайн Of Wolf and Man [in the Style of Metallica]


The Karaoke UniverseOf Wolf and Man [in the Style of Metallica] на Яндекс.Музыке


 
Ошибка в тексте? Выделите ошибку и нажмите Ctrl+Enter